Odd Project - Silver Screen Lovers Chords & Tabs

 

Silver Screen Lovers Chords & Tabs

Odd Project Chords & Tabs

Version: 1 Type: Tab

Silver Screen Lovers Tab

   
This is only the intro... so if you have the rest post it :)

Drop D-
[ Tab from: http://www.guitartabs.cc/tabs/o/odd_project/silver_screen_lovers_tab.html ]
||-------------------------------------------------------------11-----|
||---------------------9-11-12-11-9-11-12-11-9-11-12-9-12-11-9--------|
||-9-9-9-9-9/8-8-8-8-8------------------------------------------------|
||-x-x-x-x-x-x-x-x-x-x------------------------------------------------|
||-7-7-7-7-7-6-6-6-6-6------------------------------------------------|
||--------------------------------------------------------------------|

||---------------------------------14--------14---------14-12-11--11--|
||--------------------------9-11-12---9-11-12----9-11-12--------12----|
||-9-9-9-9-9/13-13-13-13-13-------------------------------------------|
||-x-x-x-x-x-x--x--x--x--x--------------------------------------------|
||-7-7-7-7-7/11-11-11-11-11-------------------------------------------|
||--------------------------------------------------------------------| x2

Thanks... please rate this!