October - Let It Rain Chords & Tabs

 

Let It Rain Chords & Tabs

October Chords & Tabs

Version: 1 Type: Tab 1 rating
1 star 2 stars 3 stars 4 stars 5 stars
comments

Let It Rain Tab

   
artist:October
song:Let it rain
tabbed by:me

great song from an amazing german newcomer band.play it loud,fast and with a lot of distortion.
have fun

[ Tab from: http://www.guitartabs.cc/tabs/o/october/let_it_rain_tab.html ]
chorus:E------6--6-6-6-6-6---5--5-5-5-5-5---6--6-6-6-6-6---1--1-1-1-1-1-------------------------
       B------6--6-6-6-6-6---6--6-6-6-6-6---6--6-6-6-6-6---1--1-1-1-1-1-------------------------
       G------7--7-7-7-7-7---5--5-5-5-5-5---8--8-8-8-8-8---2--2-2-2-2-2-------------------------
       D------8--8-8-8-8-8---7--7-7-7-7-7---8--8-8-8-8-8---3--3-3-3-3-3-------------------------
       A------8--8-8-8-8-8---5--5-5-5-5-5---6--6-6-6-6-6---3--3-3-3-3-3-------------------------
       E------6--6-6-6-6-6---------------------------------1--1-1-1-1-1-------------------------
                  #A            Dm7            D#sus2          F
                 

p :palm mute
o :not palm muted
             
              p p o p p o      p p o p p o    p p o p p o    p p o p p o
verse:E----------------------------------------------------------------------------------------
      B----------------------------------------------------------------------------------------
      G------------------------7-7-7-7-7-7----8-8-8-8-8-8--------------------------------------
      D-------8-8-8-8-8-8------7-7-7-7-7-7----8-8-8-8-8-8----3-3-3-3-3-3-----------------------
      A-------8-8-8-8-8-8------5-5-5-5-5-5----6-6-6-6-6-6----3-3-3-3-3-3-----------------------
      E-------6-6-6-6-6-6------------------------------------1-1-1-1-1-1-----------------------


                           this is a great song,and i hope october will earn money soon
Comments