Oceansize - I Am The Morning Chords & Tabs

 

I Am The Morning Chords & Tabs

Oceansize Chords & Tabs

Version: 1 Type: Tab

I Am The Morning Tab

   
/// = tremelo
b   = bend
h   = hammer

ETC...


E|-------------|
B|--13///------|
G|-------------|
D|-------------|
A|-------------|
E|-------------|

00:06
[ Tab from: http://www.guitartabs.cc/tabs/o/oceansize/i_am_the_morning_tab.html ]
E|---------------------------------------------------------------------------------|
B|-----------5h6h5---------8--------3------------5h6h5--------8--------3-----------|
G|--------5-----------------------------------5------------------------------------|
D|-----5----------------8--------3---------5---------------8--------3--------------|
A|--3----------------6--------1---------3---------------6--------1-----------------|
E|---------------------------------------------------------------------------------|

E|--------------------------------------|
B|-----------4------------------5-------|
G|--------------5------------------5----|
D|--------6--------6---------7----------|
A|-----6------------------7-------------|
E|--4------------------5----------------|

Mike Tapia

Courtesy of [URL=http://www.oceansized.co.uk/tabs/guitar/]Oceansized[/URL]