Ocean Colour Scene - Up On The Downside Chords & Tabs

 

Up On The Downside Chords & Tabs

Ocean Colour Scene Chords & Tabs

Version: 1 Type: Tab 0 ratings
1 star 2 stars 3 stars 4 stars 5 stars
comments

Up On The Downside Tab

   
##################################################################################
# This file is the author's own work and represents their interpretation of the  #
# song. You may only use this file for private study, scholarship, or research.  #
##################################################################################

heliocentric@breathe.com
Saturday 7th April, 8.44pm

UP ON THE DOWNSIDE by OCEAN COLOUR SCENE

Released as a single and on the album Mechanical Wonder (2001)

Chords used:

Em:  x79987
A:   577655
F#m: x-9-11-11-10-9
B:   799877

I think it's mostly just Em A F#m B all the way thru.
(although in the chorus maybe use A7 instead of A)

The main riff goes something along the lines of:

  Em    A            F#m   B
--7------------------------------
-----8--7--7--8--10--10----------
-------------------------9/11----
---------------------------------
---------------------------------
---------------------------------

This should do til someone does a better version.

[ Tab from: http://www.guitartabs.cc/tabs/o/ocean_colour_scene/up_on_the_downside_tab.html ]
********************************************************************************************************

********************************************************************************************************
--------------------
Up On The Downside 
--------------------

D7   =    XX0212
A    =    X02220
Em   =    022000
Bm   =    X24432

Main riff:
e---------------------------------
B--12--8-7--7-8-10--10------------
G----------------------9-8--8-9-11
D---------------------------------
A---------------------------------
E---------------------------------

Intro - G, A, D, B x2


********************************************************************************************************

********************************************************************************************************


Ocean Colour Scene
Up On The Downside

MAIN RIFF
E ---------------------------------------------- *THE RIFF STAYS THE 
B ---10/12--------------------------------------  SAME ALL THE WAY
G --------12-11--11-12-14--14-------------------  THROUGH
D ---------------------------14-13--13-14-16----  

CHORDS:
Verse : Em|A|D|B
CHORUS: Same as verse


ENJOY,ALL YOU OCS FANS.

Comments