Ocean Colour Scene - Riverboat Song Chords & Tabs

 

Riverboat Song Chords & Tabs

Ocean Colour Scene Chords & Tabs

Version: 1 Type: Bass Tab 0 ratings
1 star 2 stars 3 stars 4 stars 5 stars
comments

Riverboat Song Bass Tab

G|----------------------------|
D|----------------------------|
A|----5-7--5-7----5-7--5-7----|
E|--7----7------7----7--------| x2


G|--------------------|----------------------------|
D|--------------------|----------------------------|
A|----10-12---10-12---|----5-7--5-7----5-7--5-7----|
E|--12------12--------|--7----7------7----7--------| 

[ Tab from: http://www.guitartabs.cc/tabs/o/ocean_colour_scene/riverboat_song_btab.html ]
G|--------------------|--------------------|----------------------------|
D|--------------------|--------------------|----------------------------|
A|----12-14---12-14---|----10-12---10-12---|----5-7--5-7----5-7--5-7----|
E|--14------14--------|--12------12--------|--7----7------7----7--------| 


Thats the main Idea.
vultronox@hotmail.com if you have any comments.
Comments