Ocean Colour Scene - July Chords & Tabs

 

July Chords & Tabs

Ocean Colour Scene Chords & Tabs

Version: 1 Type: Tab 0 ratings
1 star 2 stars 3 stars 4 stars 5 stars
comments

July Tab

Ocean Colour Scene: July

INTRO:
e------------------------------------------------------------------------------|
B:-----------------------------------------------------------------------------|
G:-----------------------------------------------------------------------------|
D:-----------------------------------------------------------------------------|
A:----5\7---5\7----------------5h7----5\7---5\7--------------------------------|
E:-0-0---0-0---0h4-0h5-0h6-0h7-----0-0---0-0---0h4-0h5-0h6-0h7-----------------|


VERSE:
e:----------------------------------------4------------------------------------|
B:----------------------------------------4--14---14------------12b141210------|
G:--9-9--9-9--9-9--9-----9-9--9-9--9-9--9-5------------11b13r9-----------------|
D:--9-9--9-9--9-9--9-----9-9--9-9--9-9--9-4----11---11--------11---------------|
A:--7-7--7-7--7-7--7-----7-7--7-7--7-7--7-6------------------------------0h7\12|
E:------------------0h3b------------------4------------------------------------|
									 			


CHORUS:
e:----------------------------------------0-0-0-0-0-0-0-0----------------------|
B:----------------------------------------2-2-2-2-2-2-2-2----------------------|
G:--9-9--9-9--9-9--9-9---4-4-4-4-4-4-4-4--2-2-2-2-2-2-2-2----------------------|
D:--9-9--9-9--9-9--9-9---4-4-4-4-4-4-4-4--2-2-2-2-2-2-2-2----------------------|
A:--7-7--7-7--7-7--7-7---2-2-2-2-2-2-2-2--0-0-0-0-0-0-0-0----------------------|
E:--------------------------------------------------------0h3b-----------------|

									  			  
[ Tab from: http://www.guitartabs.cc/tabs/o/ocean_colour_scene/july_tab.html ]
e:---0---0--------0---0-------0---0--------------------------------------------|
B:---0---0--------0---0---12--0---0--------------------------------------------|
G:---1---1--------1---1---12--1---1--------------------------------------------|
D:---2---0--------2---0---12--2---0--------------------------------------------|
A:---2---2--------2---2-------2---2--------------------------------------------|
E:--0---0---0h3b-0---0---0---0---0---0h3b--------------------------------------|		


e------------------------------------------------------------------------------|
B:-----------------------------------------------------------------------------|
G:-----------------------------------------------------------------------------|
D:-----------------------------------------------------------------------------|
A:----5\7---5\7----------------5h7----5\7---5\7--------------------------------|
E:-0-0---0-0---0h4-0h5-0h6-0h7-----0-0---0-0---0h4-0h5-0h6-0h7-----------------|



VERSE:
e:-----------------------------------------------------------------------------|
B:-----------------------------------------------------------------------------|
G:--9-9--9-9--9-9--9-----9-9--9-9--9-9--9--------------------------------------|
D:--9-9--9-9--9-9--9-----9-9--9-9--9-9--9--------------------------------------|
A:--7-7--7-7--7-7--7-----7-7--7-7--7-7--7------6-6\9---------------------------|
E:------------------0h3b-------------------4-----------------------------------|





VERSE:
e:-----------------------------------------------------------------------------|
B:--14---14------------12b141210-----------------------------------------------|
G:------------11b13r9------------------1h2trill--------------------------------|
D:----11---11--------11--------------------------------------------------------|
A:------------------------------0h7\12-----------------------------------------|
E:-------------------------------------0---------------------------------------|




e:------------------0-0-0-0-0-0-0-0-------------------------------------------|
B:------------------2-2-2-2-2-2-2-2-------------------------------------------|
G:-4-4-4-4-4-4-4-4--2-2-2-2-2-2-2-2-------------------------------------------|
D:-4-4-4-4-4-4-4-4--2-2-2-2-2-2-2-2-------------------------------------------|
A:-2-2-2-2-2-2-2-2--0-0-0-0-0-0-0-0-------------------------------------------|
E:----------------------------------0h3b--------------------------------------|


Comments