Ocean Colour Scene - Get Away Chords & Tabs


Get Away Chords & Tabs

Ocean Colour Scene Chords & Tabs

Version: 1 Type: Tab 0 ratings
1 star 2 stars 3 stars 4 stars 5 stars

Get Away Tab

Band: Ocean Colour Scene
Song: 'Get Away' live at the Albert Hall 1997
Album: Songs for the Front Row

I worked out this song from the live version at the Albert Hall on the greatest hits 'Song For The Front Row' live CD. 

The song is just 3 chords all the way through. If you want to play the solo its in the scale of D major, i've just been improvising it rather than trying to tab out the exact way Steve plays it.


when playing the intro he plays the same chords as in the rest of the song, but in a more diminished fashion only hitting a few of the strings and adding in a couple of hammer ons here n there.

[ Tab from: http://www.guitartabs.cc/tabs/o/ocean_colour_scene/get_away_tab.html ]
e |-----------------------------------------------------------------------------|
b |-----3-----3-----------------------------------------------------------------|
g |-----2--------------2--------------------------------------------------------|
d |-----0---------0----------0----0-------0---0----0-0-0----0---(0--0h2p0)------|     repeat x 8 except for bit in brackets which is
a |--------------------------3--------3-------2----2-2h3----3-------------------|     repeated on the 2nd and 6th times round only!

Chord Sequence Throughout Song (including under solo)

         Ddim    Cadd9     Badd9 Cadd9 

e |------------------------------------------------------------------------------------|
b |-----3-3------3-3--3-3---3-3---3-3-3-3----------------------------------------------|
g |-----2-2------0-0--0-0---0-0---0-0-0-0----------------------------------------------|
d |-----0-0----- 0-0--0-0---0-0---0-0-0-0----------------------------------------------|
a |--------------3-3--3-3---2-2---2-2h3-3----------------------------------------------|
E |------------------------------------------------------------------------------------|

(approximate strumming pattern shown, listen to the record for the exact rythm and timing as this changes at points in the song. Also some parts are played more like the intro with the chords more diminished so listen out for this)

any queries, comments or requests please contact me: uncle_brian87@hotmail.com