Ocean Colour Scene - Everything Comes At The Right Time Chords & Tabs

 

Everything Comes At The Right Time Chords & Tabs

Ocean Colour Scene Chords & Tabs

Version: 1 Type: Tab 0 ratings
1 star 2 stars 3 stars 4 stars 5 stars
comments

Everything Comes At The Right Time Tab

   
#----------------------------------PLEASE NOTE--------------------------------#
#This file is the author's own work and represents their interpretation of the#
#song. You may only use this file for private study, scholarship, or research.#
#-----------------------------------------------------------------------------#

Submitted by:   THE LEGEND! 
Song Title:EVERYTHING COMES AT THE RIGHT TIME
Artist:OCEAN COLOUR SCENE
ALBUM: A HYPERACTIVE WORKOUT FOR THE FLYING SQUAD


h=hammer on/off
b=bend up

E---0---3b-------------------|--0---3b--------------------|
A-----------0-h-1-h-2--------|---------0-h-1-h-2----------|
D----------------------0h1h2-|--------------------2h1h0-2-|
G----------------------------|----------------------------|
B----------------------------|----------------------------|
e----------------------------|----------------------------|  x2


Intro:


Verse 1:
E---0------------------|--0---|
A--------------5-4-2-0-|------|
D----------------------|------|
G----------------------|------|
B----------------------|------|
e-----0----------------|----0-|  repeat etc. (through first part verse)


E------------------|--0---|
A---0--------------|------|
D--------5-4-2-0---|------|
G------------------|------|
B------------------|------|
e------------------|----0-|  repeat etc. (through second)


******************************************************************************************************

******************************************************************************************************
    


sent in by: "Oscar" 
Subject: o/ocean_colour_scene/day_tripper.crd
Date: Wed, 15 Apr 1998 13:57:17 +0200


[ Tab from: http://www.guitartabs.cc/tabs/o/ocean_colour_scene/everything_comes_at_the_right_time_tab.html ]
DAY TRIPPER
Beatles (Ocean Colour Scene)
Author: Paul Zimmerman
 
riff 1:                               riff 2:
|-----------------------------        |----------------------------
|-----------------------------        |----------------------------
|-----------------------------        |-----------2-0-----4----0-2-
|-----------2---0---4---0-2---        |---------2-------2----2-----
|---------2-------2---2-------        |-0---3-4--------------------
|-0---3-4---------------------        |----------------------------
 
play riff 1 2x, then riff 2 once, then riff 1 once
 
Peace, love, and soul,
Paul Zimmerman


******************************************************************************************************

******************************************************************************************************

Date: Wed, 8 Apr 1998 19:24:35 +0200
From: Oscar 
Subject: o/ocean_colour_scene/charlie_brown_says.crd

Charlie Brown Says with Ocean Colour Scene

This how I think Charlie Brown Says is played. I think it sounds quite right.
If you disagree you could always mail me at oscar.widegren@nykoping.com.
This one was really hard to tab. I really don't know what the D? is.
Maybe it's some kind of "jazz" chord like 13-9 or something.

Chords:

(E)  xx2xxx
D    xx0232
Cma7 x32000
Am7  x02010
G    320011 (or 320001)
C#dm 345353
F#7  242322
E7   022130
F#   244322
E    022100
C    x32010

Oscar Widegren 


******************************************************************************************************

******************************************************************************************************






Comments