Ocean Colour Scene - Circle Chords & Tabs

 

Circle Chords & Tabs

Ocean Colour Scene Chords & Tabs

Version: 1 Type: Bass Tab 0 ratings
1 star 2 stars 3 stars 4 stars 5 stars
comments

Circle Bass Tab

Tabbed by Bigmc

Ocean Colour Scene - The Circle


Intro/Verse

The intro has slightly different timing. You just have to listen to get it.


G------------------------------------|  
D--0--0-0-0--------------------------|  
A----------0--0-0-0--2--2-2-2--------|
E----------------------------3--3-3-3|

End of Verse

G--------------------|
D--0-0-0-0-----------|
A---------00---------|
E------------33-22-11|

Chorus

G------------------------------|
D------------------------------|
A--------------0-----0-0--(0)--|
E--3----3-3--(3)---------------|

2nd verse repeat 1st verse



Bridge
[ Tab from: http://www.guitartabs.cc/tabs/o/ocean_colour_scene/circle_btab.html ]
G---------------------------------------|
D---------------------------------------|
A--3--3-3-3-3----------0-0-0-0-0-0-0-0-0|
E------------3--3-3-3-3-----------------|

G----------------------------------------------|
D----------------------------------------------|
A--3--3-3-3-3-----------0-0-0-0--------0-0-0-0-|
E-------------3--3-3-3-3--------3-3-3-3--------|

2nd chorus repeat first x2


Solo

G---------------------------|x1
D0-0-0-0--------------------|
A--------3-3-3-3-00---------|
E------------------33-22-11-|

G----------------------------------|x4
D0-0-0-0---------------------------|
A--------3-3-3-3-2-2-2-2-00--------|
E--------------------------33-22-11|



Email me bigmc@24stadium.freeserve.co.uk and let me know what you think or any other correction.

Thanks and enjoy!!
Comments