Ocasek Ric - Emotion In Motion Chords & Tabs

 

Emotion In Motion Chords & Tabs

Ocasek Ric Chords & Tabs

Version: 1 Type: Chords 0 ratings
1 star 2 stars 3 stars 4 stars 5 stars
comments

Emotion In Motion Chords

   
От: for www.ultimate-guitar.com 
Кому: 
Тема: New Tabs
Дата: 15 июня 2000 г. 20:10

ric ocasek, emotion in motion.
 Tabbed by dave sussman, ds0177@students.law.miami.edu.
  
Emotion In Motion
Ric Ocasek
This Side Of Paradise (1986)

d.suss

I haven-t heard this song in about 10 years, but it came into my head.
Tab at bottom
	    C   F   G  		     C F G
I would do anything to hold on to you
	    C   F   G		    	 C  F  G
Just about anything until you pull through
	    	Am C         F		      G
I'd hold on to you 'til the stars no longer wink
	    	Am C	     F
I'd hold on to you 'til you figure out
     G
Just what to think, 'cos

Dm		   G
You're emotion in motion
Dm	    G
My magical potion
Dm		   G
You're emotion in motion
   C F G
To me

	   C   F   G  		      C F G
I would go anywhere to meet up with you
	   C   F   G  		     C F G
Just about anywhere for one rendezvous
		Am C         F		       G
I'd hold on to you 'til the mountains crumble flat
		Am C         F		      
I'd hold on to you 'til you figure out
     G
Just where you're at
[ Tab from: http://www.guitartabs.cc/tabs/o/ocasek_ric/emotion_in_motion_crd.html ]
Dm		   G
You're emotion in motion
Dm	    G
My magical potion
Dm		   G
You're emotion in motion
   C F G
To me
           C   F   G  	   	     C F G
I would do anything to hold on to you
	   C   F   G  	   	       C F G
Just about anything that you want me to
		Am C         F		       G
I'd hold on to you 'til you take it all in stride
		Am C         F		       
I'd hold on to you 'til you want to stay here
G
By my side

Dm		   G
You're emotion in motion
Dm	    G
My magical potion
Dm		   G
You're emotion in motion
   C F G
To me (repeat three times to the end)

Intro/verse
	C	  F	   G
-----------------------------------0------------------------
---------1----------1---------3-------3----3----------------
-------0---0------2---------0---0--------0------------------
----------------3-------------------------------------------
---3--------------------------------------------------------
-------------------------3----------------------------------
bridge
	Am			C		F		G
-----------------------------------------------------------
---------1------------1------------------------------------
-------2---2--------0---0-----------2------------0---------
-----2-------2----2-------2-------3---3--------0---0-------
--------------------------------3-------3----2-------2-----
------------------------------1-------------3--------------

Chorus
	Dm			G
---------1---------------3---------------------------------
-------3---3-----------3---3-------------------------------
-----2-------2-------0-------0-----------------------------
--0--------------------------------------------------------
-----------------------------------------------------------
-------------------3---------------------------------------
 
:: Ultimate Guitar Archive :: 
http://www.ultimate-guitar.com 

Comments