Obituary - Download Chords & Tabs

 

Download Chords & Tabs

Obituary Chords & Tabs

Version: 1 Type: Tab 0 ratings
1 star 2 stars 3 stars 4 stars 5 stars
comments

Download Tab

   
Obituary - Download
"Back From the Dead"

Tuning - Half Step DOWN

[Intro]       
|-------------------||---------|
|-------------------||---------|
|-------------------||---------|
|-------------------||---------|
|--2-3-2-4-2-5-2-6--||--2-2-2--|
|--0-1-0-2-0-3-0-4--||--0-0-0--|

[Riff A/1]      
|-------------------||---------|
|-------------------||---------|
|-------------------||---------|
|-------------------||---------|
|--2-3-2-4-2-5-2-6--||--2-2-2--|
|--0-1-0-2-0-3-0-4--||--0-0-0--|

[Riff A/2]
|-------------------|
|--Repeat 4 times---|
|-------------------|
|-------------------|
|--2-3-2-4-2-5-2-6--|
|--0-1-0-2-0-3-0-4--|

[Riff B]   x5
|----------------------------------|
|----------------------------------|
|----------------------------------|
|----------------------------------|
|-4-4-4--7-7-7--3-3-3--6--0-1h2p1--|
|-2-2-2--5-5-5--1-1-1--4--0-1h2p1--|

[Riff C]
|-----------------------|---|
|-----------------------|---|
|-----------------------|---|
|-----------------------|---|
|-5-4---5-4---5-4---5-4-|-5-|
|-3-2---3-2---3-2---3-2-|-3-|
[ Tab from: http://www.guitartabs.cc/tabs/o/obituary/download_tab.html ]
[Riff B] x4

[Riff D]       
|-----------------------------|
|-----------------------------|
|-----------------------------|
|-----------------------------|
|-5-4-4--4-3-3--3-2-2--2-2--2-|
|-3-2-2--2-1-1--1-0-0--0-0--0-|

[Riff C] 
|-----------------------|-----|
|-----------------------|-----|
|-----------------------|-----|
|-----------------------|-----|
|-5-4---5-4---5-4---5-4-|-5-4-|
|-3-2---3-2---3-2---3-2-|-3-2-|

[Riff C] 
|-----------------------|-----|
|-----------------------|-----|
|-----------------------|-----|
|-----------------------|-----|
|-5-4---5-4---5-4---5-4-|-5-4-|
|-3-2---3-2---3-2---3-2-|-3-2-|

[Outro]
|-------------------||---------|
|-------------------||---------|
|-------------------||---------|
|-------------------||---------|
|--2-3-2-4-2-5-2-6--||--2-2-2--|
|--0-1-0-2-0-3-0-4--||--0-0-0--|

|-------------------||---------|
|-------------------||---------|
|-------------------||---------|
|-------------------||---------|
|--2-3-2-4-2-5-2-6--||--2-2-2--|
|--0-1-0-2-0-3-0-4--||--0-0-0--|

Comments, hate mail, death threats to -
clangerfreak@hotmail.com

~*jinxx*~
Comments