Obituary - Buried Alive Chords & Tabs

 

Buried Alive Chords & Tabs

Obituary Chords & Tabs

Version: 2 Type: Tab 0 ratings
1 star 2 stars 3 stars 4 stars 5 stars
comments

Buried Alive Tab

#----------------------------------PLEASE NOTE--------------------------------#
#This file is the author's own work and represents their interpretation of the#
#song. You may only use this file for private study, scholarship, or research.#
#-----------------------------------------------------------------------------#
#-- File created with Instab - http://www.pconline.com/~smcarey/instab.html --#
#-----------------------------------------------------------------------------#

Author/Artist: Obituary
Title: Buried Alive
Album: Anthology
Transcribed by: Way
Email: SGgothSoundGod@aol.com

I screwed up on my last transcript. i was doing it from memory.
Nothing major though, just one chord in Riff A was wrong. I fixed it here.

------------------------------------------------------------------------------
------------------------------------------------------------------------------
-----4------------------------------------------------------------------------
---4--------5------2--4-------------------------------------------------------
-2--------5------2----4-------------------------------------------------------
--------3------0------2-------------------------------------------------------
 Riff A.  With Delay and Chorus                                               
[ Tab from: http://www.guitartabs.cc/tabs/o/obituary/buried_alive_tab_ver_2.html ]
------------------------------------------------------------------------------
------------------------------------------------------------------------------
------------------------------------------------------------------------------
-4-4-4-2-2-2-5-5-4-7-7--------------------------------------------------------
-4-4-4-2-2-2-5-5-4-7-7--------------------------------------------------------
-2-2-2-0-0-0-3-3-2-5-5--------------------------------------------------------
 Riff B. Delay and Chorus, then Heavy Distortion                              

------------------------------------------------------------------------------
------------------------------------------------------------------------------
------------------------------------------------------------------------------
-4-2-----4-2-----4-2----------------------------------------------------------
-4-2-----4-2-----4-2----------------------------------------------------------
-2-0-----2-0-----2-0----------------------------------------------------------
 Not sure how many times played. I'm doing this from memory                   

------------------------------------------------------------------------------
------------------------------------------------------------------------------
------------------------------------------------------------------------------
-4-4-----4-4-----4-4-----4-4-4-4-4-4-4-4-4-4-2-2-2-2-2------------------------
-4-4-----4-4-----4-4-----4-4-4-4-4-4-4-4-4-4-2-2-2-2-2------------------------
-2-2-----2-2-----2-2-----2-2-2-2-2-2-2-2-2-2-0-0-0-0-0------------------------
 don't know # of times played. Then go back to Riff B.                        


Comments