Oasis - Wonderwall Chords & Tabs

 

Oasis Chords & Tabs

Version: 1 Type: Tab 1 rating
1 star 2 stars 3 stars 4 stars 5 stars
comments

Wonderwall Tab

------------------
WONDERWALL - OASIS
------------------

CAPO 2 [all relative to CAPO]

RIFF 1 -
e|-3-----3--3--3-----3--3--3-3-|-3--3--3--3-----3---3--3--3-----|
B|-3-----3--3--3-----3--3--3-3-|-3--3--3--3-----3---3--3--3-----|
G|-0-----0--0--0---0-0--0--0-0-|-2--2--2--2---0-2---2--2--2-0-0-|
D|-2-----2--2--2---0-0--0--0-0-|-0--0--0--0---0-2---2--2--2-0-0-|
A|-2-----2-----------2--2--2-2-|----------------0---0--0--0-----|
E|-0--2--------------3--3--3-3-|--------------------------------|

RIFF 2 -
e|-3----3-3-3-3--3-3-3-3-3-----|-----3--3--3-3---3---3--3--3----|
B|-0----0-0-0-3--3-3-3-3-3-0-0-|-0-0-3--3--3-3---3---3--3--3--0-|
G|-0----0-0-0-2--2-2-2-2-2-0-0-|-0-0-0--0--0-0---0---0--0--0--0-|
D|-2----2---2-0--0-0-0-0-0-0-0-|-0-0-2--2--2-2---2---2--2--2--0-|
A|-3-3--3---3------------------|-----0--0--0-0---0---0--0--0----|
E|-----------------------------|--------------------------------|

RIFF 3 -
e|---3-----------4h5p4---------|--------------------------------|
B|-------1-------------5-------|--------------------------------|
G|----------0--------------2---|---------------0--------0-------|
D|------------0----------------|-----------0-------0h2------0---|
A|-3---------------------------|------0h2-----------------------|
E|-----------------------------|--0-----------------------------|

e|---3-----------4h5p4---------|--------------------------------|
B|-------1-------------5-------|--------------------------------|
G|----------0--------------2---|---------------0--------0-------|
D|------------0----------------|-----------0-------0h2------0---|
A|-3---------------------------|------0h2-----------------------|
E|-----------------------------|--0-----------------------------|
[ Tab from: http://www.guitartabs.cc/tabs/o/oasis/wonderwall_tab.html ]
e|---3-----------4h5p4---------|---3-------3-------3-------3----|
B|-------1-------------5-------|----3-------3-------3-------3---|
G|----------0--------------2---|-----0-------0-------0-------0--|
D|------------0----------------|--------------------------------|
A|-3---------------------------|--------------------------------|
E|-----------------------------|-3-------2-------0-------0------|

RIFF 4 -
e|-------0--------------0------|-------0------------------------|
B|-----3---3----------3----3---|-----3---3---------3------3-----|
G|---0-------0------0--------0-|---0-------0-----0------0---0---|
D|-----------------------------|----------------------2-------2-|
A|-0--------------0------------|-0-------------0----------------|
E|-----------------------------|--------------------------------|

RIFF 5 -
e|-----------------------------|--------------------------------|
B|-3------3--3-3---3-3--3--3-3-|-3-3-3------3--3---0----0-0-0-0-|
G|-0------0--0-0---0-0--0--0-0-|-0-0-0------0--0---0--0-0-0-0-0-|
D|-2------2--2-2---2-2--2--2-0-|-0-0-0------0--0---2--2-2-2-2-2-|
A|-3--3---3--3-3-----2--2--2---|-2---2------2--2------2---2-2-2-|
E|-------------------0--0--0---|-3---3------3--3------0---0-0-0-|

RIFF 6 -
e|-----------------------------|-------------------0------------|
B|-3------3--3-3---3-3--3--3-3-|-3-3-3------3--3---0------------|
G|-0------0--0-0---0-0--0--0-0-|-0-0-0------0--0---0-[let ring]-|
D|-2------2--2-2---2-2--2--2-0-|-0-0-0------0--0---2------------|
A|-3--3---3--3-3-----2--2--2---|-2---2------2--2---2------------|
E|-------------------0--0--0---|-3---3------3--3---0------------|

SONG ORDER - 
RIFF 1 x4
RIFF 1 x3  [with vocals]
RIFF 2 x1
RIFF 1 x4  [with vocals]
RIFF 3 x1  [with vocals]
RIFF 4 x1
RIFF 5 x4  [with vocals]
RIFF 1 x4  [with vocals]
RIFF 3 x1  [with vocals]
RIFF 4 x1
RIFF 5 x16 [with vocals]
RIFF 6 x1
Comments