Oasis - Wonderwall Chords & Tabs

 

Wonderwall Chords & Tabs

Oasis Chords & Tabs

Version: 2 Type: Bass Tab 0 ratings
1 star 2 stars 3 stars 4 stars 5 stars
comments

Wonderwall Bass Tab

Song Title: Wonderwall
Artist: Oasis
----------------------------------------------

Here's Wonderwall


No bass for first verse

Backbeat the world...
Today was gonna...

G----------------------------------------------------------------------------
D----------------------------------------------------------------------------
A-------------------------------0-2-2-2-0-2--0-----------------------7-7-7--7
E--2-2-2--5-5-5-5--5--0-0--0-0------------------2-2-2--2-5-5-5--5--5---------

G-----------------------------------------------------------------------------
D-----------------------------------------------------------------------------
A-0-2-2-2-0-2-0---------------------------------0-2-2-2-0-2-0-----------------
E----------------2-2-2--2-5-5-5--5--5--0-0-0--0---------------2-2-2-2--2-5-5-5

G-------------------------------
D-------------------------------
A------------------0-2-2-2-0-2-0
E--5--5--0-0-0--0---------------

Pre-chorus(and all the roads...)

G------------------------------------------------------------------
D------------------------------------------------------------------
A--5-5--5-7-7-7-7---9-9-9-9--9--7-9-9--7-9-9--5-5-5--5---5-5-7-7--7
E------------------------------------------------------------------

G--------------------------------------------------------------
D----------------------------------------------------7--6--4--7
A--------------------------------5----5--5-7-7-7--7------------
E--2-2-2--2--0-2-2--0-2-2--0-2-2-------------------------------

G---------------------------------------------------
D---------------------------------------------------
A--2--2--2--0-2-2--0-2--2--0-2--0-2--0-2---2--0-2--2
E---------------------------------------------------

1st Chorus(maybe...)

G----------------------------------------------------------------------
D----------------------------------------------------------------------
A--5-5-5--5--7-9-9-9-7-9--9--0-0-0--0--7-9-9-9-7-9-9--5-5-5--5--7-9-9-9
E----------------------------------------------------------------------
[ Tab from: http://www.guitartabs.cc/tabs/o/oasis/wonderwall_btab_ver_2.html ]
G--------------------------------------------------------------------------
D--------------------------------------------------------------------------
A--7-9-9--0-0--0--7-9-9-9-7-9-9--5-5-5--5--7-9-9-9-7-9-9--0-0-0--0--7-9-9-9
E--------------------------------------------------------------------------

G------------------------------------------------------------------------
D------------------------------------------------------------------------
A--7-9-9--5-5-5--5--7-9-9-9-7-9--9---0-0-0--0-9-9---------------------0--
E-----------------------------------------------------------0-0--0--0---0

2nd Chorus(I said maybe...)

G----------------------------------------------------------------------
D----------------------------------------------------------------------
A--5-5-5--5--7-9-9-9-7-9--9--0-0-0--0--7-9-9-9-7-9-9--5-5-5--5--7-9-9-9
E----------------------------------------------------------------------

G--------------------------------------------------------------------------
D--------------------------------------------------------------------------
A--7-9-9--0-0--0--7-9-9-9-7-9-9--5-5-5--5--7-9-9-9-7-9-9--0-0-0--0--7-9-9-9
E--------------------------------------------------------------------------

G-----------------------------------
D-----------------------------------
A--7-9-9--5-5-5--5--7-9-9-9-7-9--9--
E-----------------------------------    (all this X3)

G------------------------------------------------------------------------
D------------------------------------------------------------------------
A--5-5-5-5--7-9-9-9-7-9-9--0-0-0-0--7-9-9-9-7-9-9--0-0-0-0-7-9-9-9-7-9-9-
E------------------------------------------------------------------------

G------------------------------------------------------------------------
D------------------------------------------------------------------------
A--0-0-0-0-7-9-9-9-7-9-9---0-0-0--0------------2/9-----------------------
E------------------------------------2-2---------------------------------

If you have any Oasis or Blur tabs, send them my way

Submitted by:  Jeremy Ball (nfabbro@mag-net.com)
Comments