Oasis - Turn Up The Sun Chords & Tabs

 

Turn Up The Sun Chords & Tabs

Oasis Chords & Tabs

Version: 2 Type: Tab 0 ratings
1 star 2 stars 3 stars 4 stars 5 stars
comments

Turn Up The Sun Tab

   
Turn up the sun
oasis

Capo 2nd fret

A5 x022xx
D5 xx023x
F5 133xxx

verse


 I carry the ........
e------------------------------------------------------|
b------------------------------------------------------|
g--2-2-2-2-2-2-2---2--0-2------------------------------|
d--2-2-2-2-2-2-2---2--0-2------------------------------|  four times
a--0-0-0-0-0-0-0---0--0-0------------------------------|
e----------------3-------------------------------------|

 so if you se me.....................
e--------------------------------------------------------|
b--3-3-3-3-3-3-3----3-0-3--------------------------------|
g--2-2-2-2-2-2-2----2-0-2--------------------------------| two times
d--0-0-0-0-0-0-0----0-0-0--------------------------------|
a-----------------3--------------------------------------|
e--------------------------------------------------------|

 Chorus
[ Tab from: http://www.guitartabs.cc/tabs/o/oasis/turn_up_the_sun_tab_ver_2.html ]
F5
come turn up the sun
A5             D5
turn it up for every one yeah

solo

e--------------------------------------------------------------------------|
b----------5-6-5--------------------------5--------------------------------|
g--5-4-5-7-------7-5-7-5-4---5-4---4-5-7----7-5-4-5-4----------------------|
d--------------------------7-----7--------------------7-5------------------|
a--------------------------------------------------------------------------|
e--------------------------------------------------------------------------|

e------------------------------------------------------------------------|
b-----------3-2-3--------------------------3-----------------------------|
g--3-2-3-5--------5-3-5-3-2---3--2-0-2-3-5---5-3-2-3-2-0-----------------|
d--------------------------5------------------------3--------------------|
a------------------------------------------------------------------------|
e------------------------------------------------------------------------|
Comments