Oasis - Supersonic Chords & Tabs

 

Supersonic Chords & Tabs

Oasis Chords & Tabs

Version: 7 Type: Tab 0 ratings
1 star 2 stars 3 stars 4 stars 5 stars
comments

Supersonic Tab

   
This is the way I play the song, but I didnít tab it ;)

Title:	SUPERSONIC
Band:	OASIS (written by Noel Gallagher) 
Album:	DEFINITELY MAYBE (1994)

-CHORDS USED-
F#m11-(044200)
Asus2-(x02200)
B7----(021202)
F#5---(244xxx)
E5----(022xxx)
A-----(x02220)
B-----(x24442)
F#m---(244222)
C#7---(x46464)
D-----(xx0232)
E-----(022100)
F#----(244322)

>>INTRO
     F#m11           Asus2    B7
e|---------0----------------------|
B|-----------0---------0------0---|
G|-------2-----2-------2------2---|	
D|-----4---------4-----2------1---|3 TIMES
A|---4-------------0---0---0--2---|
E|--------------------------------|

e|--------------|
B|--------------|    
G|--------------|     b = Half Bend
D|-----------4--|    
A|----2b---0----|
E|--------------|

>>VERSE-1

>>RIFF-1
e|---7-------|
B|-----5-----|
G|---------6-|	
D|-----------|
A|-----------|
E|-----------|

>>RIFF-2
e|--------------|
B|--------------|    
G|--------------|     b = Half Bend
D|-----------4--|     
A|----2b---0----|
E|--------------|
          F#5      E5 F#5  E5  A B
I need to be myself
             F#5      E5 F#5  E5  A B
I don't need no one else
       F#5      E5 F#5  
I'm feeling supersonic
E5   A       B
Give me gin and tonic
F#5          E5 F#5     E5  A        B
You can have it all but how much do you want it
      F#5      E5 F#5  E5  A B
You make me laugh
             F#5      E5 F#5  E5  A B
Give me your autograph
         F#5      E5 F#5  
Can I ride with you 
        E5  A   B
In your B  M  W
         F#5      E5 F#5
You can sail with me
        E5  A    B
In my yellow submarine

>>BRIDGE

>>RIFF-1
e|--------------------|
B|--------------------|
G|--------------------|	
D|--------------------|
A|---2-2-4-2-2-2-4-2--|
E|-0-0-0-0-0-0-0-0-0--|

>>RIFF-2
e|---7-------|
B|-----5-----|
G|---------6-|	
D|-----------|
A|-----------|
E|-----------|

>>RIFF-3
e|--------------4-----------------|
B|-----6---------------6----------|
G|-4-------4--------------6---4---|	
D|-6---------6------------------6-|
A|--------------------------------|
E|--------------------------------|
            E5
You need to find out
                                    F#m
Cause no-one gonna tell you what I'm on about
            E5
You need to find a way
                        C#7
For what you wanna say

But before tomorrow 

>>CHORUS

>>RIFF-1
e|-----------------------------------|
B|-----------------------------------|
G|-----------------------------------|	
D|------2--------------------2-------|  s = Slide
A|-2s4----4--2---0---0---2s4---4-----|
E|-------------------------------2---|
      D             A             E      F#
Cause my friend said he'd take you home  
   D          A          E    F#
He sits in a corner all alone
   D      A         E     F#     
He lives under a waterfall
D            A        E          F#          D     A
No-body can see him nobody can ever hear him call
   E           F#          D    A
No-body can ever hear him call

Bonehead keeps repeating the chord progression D  A  E  F#
While Noel plays the following solo

>>GUITAR SOLO
B = Full Bend
b = Half Bend
h = Hammer On
p = Pull Off
e|-------------------------------------------------------------------|
B|-------------------------------------------------------------17----|
G|--16B-16B--14---16--14----------14-------------16B--16B--14--------|	
D|-----------------------16-14-16----16--14--------------------------|
A|-------------------------------------------------------------------|
E|-------------------------------------------------------------------|

e|-------------------------------------------------------------------|
B|-------------------------------------------------------------------|
G|--16b--16--14-------14h16p14-----14---16B-16B--14--16--14----------|	
D|--------------14h16----------16---------------------------16-14-16-|
A|-------------------------------------------------------------------|
E|-------------------------------------------------------------------|

e|-------------------------------------------------------------------|
B|------------------------17-----------------------------------------|
G|14--------16B--16B--14------16b-16-14--------14h16p14----14--------|	
D|---16-14-------------------------------14h16----------16-----------|
A|-------------------------------------------------------------------|
E|-------------------------------------------------------------------|
[ Tab from: http://www.guitartabs.cc/tabs/o/oasis/supersonic_tab_ver_7.html ]
e|--0------------4---------------------------------------------------|
B|--0------------6---------------------------------------------------|
G|--1------------4---------------------------------------------------|
D|---------------6-----------------------------------4---------------|
A|---------------4----------------------2b-------0-------------------|
E|----------0--------------------------------------------------------|

>>VERSE-2
You need to be yourself
You can't be no one else
I know a girl called Elsa
She's into Alka Seltzer
She sniffs it through a cane
On a supersonic train
And she made me laugh
I got her autograph
She done it with a doctor
On a helicopter
She's sniffin' in her tissue
Sellin' the Big Issue

>>BRIDGE-2
When she finds out
No-ones gonna tell her what I'm on about
You need to find a way
For what you want to say
But before tomorrow

>>OUTRO
D-A-E-F#
e|-------------------------------------------------------------------|
B|-------------------------------------------------------------17----|
G|--16B-16B--14---16--14----------14-------------16B--16B--14--------|	
D|-----------------------16-14-16----16--14--------------------------|
A|-------------------------------------------------------------------|
E|-------------------------------------------------------------------|

e|-------------------------------------------------------------------|
B|-------------------------------------------------------------------|
G|--16b--16--14-------14h16p14-----14---16B-16B--14--16--14----------|	
D|--------------14h16----------16---------------------------16-14-16-|
A|-------------------------------------------------------------------|
E|-------------------------------------------------------------------|

e|-------------------------------------------------------------------|
B|-------------------------------------------------------------------|
G|14-------------14---16b--16b--16b--16b---16bp14---14-14---14-14h16-|	
D|---16-14----16---------------------------------16------------------|
A|-------------------------------------------------------------------|
E|-------------------------------------------------------------------|

e|-------------------------------------------------------------------|
B|-------------------------------------------------------------------|
G|-14----16B--16B--14--16---14----------14---------------------------|
D|-----------------------------16-14-16----16-14---16B--16B--14--16--|
A|-------------------------------------------------------------------|
E|-------------------------------------------------------------------|

e|-------------------------------------------------------------------|
B|-------------------------------------------------------------------|
G|-16b--16--14------- 14h16-------14--16B-16B--14--16--14----------14|	
D|--------------14h16-------14h16-------------------------16-14-16---|
A|-------------------------------------------------------------------|
E|-------------------------------------------------------------------|

e|-------------------------------------------------------------------|
B|-------------------------------------------------------------------|
G|--------------14----------14---16b---16b-16b-16b-----16--16--0-----|	
D|--16--14--16-----16-14-16------------------------------------------|
A|-------------------------------------------------------------------|
E|-------------------------------------------------------------------|

e|-------------------------------------------------------------------|
B|-------------------------------------------------------------------|
G|--14-----14---14----14--14----14-----14------14-----14-----14---14-|	
D|--14h16--16---14----14--14h16-14-----14h16---14-----14h16--14---14-|
A|-------------------------------------------------------------------|
E|-------------------------------------------------------------------|

e|-------------------------------------------------------------------|
B|-------------------------------------------------------------------|
G|--14----14--14---14--14-----------14---16-16b---16b--16b----14---0-|	
D|--14h16-----14---14--14h16--14----14-------------------------------|
A|-------------------------------14----------------------------------|
E|-------------------------------------------------------------------|
                                                                         Repeat To
e|-------------------------------------------------------------------|      Fade
B|-------------------------------------------------------------------|  
G|--14----14--14---14-14-14----14----14--14----14----14--------14--14|
D|--14h16-----14---14-14-14h16-14----14--14h16-14----14h16-14--14--14|
A|-------------------------------------------------------------------|
E|-------------------------------------------------------------------|

e|-------------------------------------------------------------------|
B|-------------------------------------------------------------------|
G|--14------14----14--16--14---16b--16b-16b-16bp14-----14------------|	
D|--14h16---14-------------------------------------16----------------|
A|-------------------------------------------------------------------|
E|-------------------------------------------------------------------|

www.geocities.com/leon_e_mail/
Comments