Oasis - Supersonic Chords & Tabs

 

Supersonic Chords & Tabs

Oasis Chords & Tabs

Version: 2 Type: Tab 1 rating
1 star 2 stars 3 stars 4 stars 5 stars
comments

Supersonic Tab

   
Song: Supersonic
Band:Oasis
Album: Definitely Maybe
Written by: Noel G.
Track: 6
Track Length: 4.46 mins

Guitar 1:

Intro:

     F#m11         Asus2   B7
e|----------0------0--------------|
b|--------0--0-----0--------0-----|
g|------2------2---2--------2-----| Play 4 times
d|----4----------4-2--------1-----|
a|--4--------------0--------2-----|
E|--------------------------------|

Verses:

  F#5 E5 F#5 E5 | A5  B5  | Play 8 times |

  V V U   V   U   VVV v vv


Bridge:

  E5 | E5 | F#5 | F#5 | E5 | E5 | C#7 | C#7 |

  Strum pattern for all bars : V V UVUVU

Chorus:

  D   A5 | E5  F#5  | 5 times | D5  A5 |

  VVU VVU  VVV V UVU            VVU VVU

Guitar Solo 1:

   E5  F#5  | D    A5 | 2 times | E5 | E5 | C#9 | C#9 |

   VVV V UVU  VVU  VVU          All bars here: V V UVUVU

Guitar Solo 2:

   E5  F#5  | D    A5 | To fade |

   VVV V UVU  VVU  VVU



Progression : Intro          Key: V = Downstroke
              Verse               U = Upstroke
              Bridge
              Chorus
              Solo 1
              Verse
              Bridge
              Chorus
              Solo 2

Note: Just relax when playing the strum patteren some bits
      are slow others are fast - I tried to show this by using 
      spaces or none !

Chords Used:         E a D g b E
             F#m11 : x 4 4 2 0 0
             Asus2 : x 0 2 2 0 0
             B7    : x 2 1 2 0 x
             F#5   : 2 4 4 x x x
             E5    : 0 2 2 x x x
             A5    : x 0 2 2 x x 
             B5    : x 2 4 4 x x 
             C#7   : x 4 6 4 6 4 (Bar chord)
             D     : x x 0 2 3 2 
             C#9   : x 4 3 4 4 x


Guitar 2:

Verse:

At the end of every second chord progression play this little riff:

e|--7--------|
b|-----5-----|
g|--------6--|

Bridge:

At the end of the second bar of E5 play this:

e|--7----------7-----------|
b|-----5----------------5--|
g|-------6--6-----6--6-----|

Chorus:

Play this 5 times:

e|------------------------------------|
b|------------------------------------|
g|------------------------------------|
d|-------2----------------2-----------|
a|--2s4-----4--2--0--2s4-----4--------|
E|------------------------------2-----|

Guitar Solo 1:

Play this through twice:

e|------------------------------------------------|
b|------------------------------------------------|
g|--16b17--16--14--16--14-------------14----------|    
d|-------------------------16-14--16------16--14~-|
a|------------------------------------------------|
E|------------------------------------------------|

e|------------------------------------------------------------|
b|-----------------17-----------------------------------------|
g|--16b17--16--14------16b17r16-14---------14h16--14------14~~|    
d|----------------------------------14h16-------------16------|
a|------------------------------------------------------------|
E|------------------------------------------------------------|

Guitar Solo 2:

Part 1 (3.25-3.34) (3.43-3.52) (4.28-4.37)
[ Tab from: http://www.guitartabs.cc/tabs/o/oasis/supersonic_tab_ver_2.html ]
e|------------------------------------------------|
b|------------------------------------------------|
g|--16b17--16--14--16--14-------------14----------|    
d|-------------------------16-14--16------16--14~-|
a|------------------------------------------------|
E|------------------------------------------------|

e|------------------------------------------------------------|
b|-----------------17-----------------------------------------|
g|--16b17--16--14------16b17r16-14---------14h16--14------14~-|    
d|----------------------------------14h16-------------16------|
a|------------------------------------------------------------|
E|------------------------------------------------------------|

Part 2 (3.35-3.40) (3.53-3.58)

e|------------------------------------------------|
b|------------------------------------------------|
g|--16b17--16--14--16--14--------------14---------|    
d|-------------------------16--14--16------16--14-|
a|------------------------------------------------|
E|------------------------------------------------|

e|---------------------------------|
b|---------------------------------|
g|-----14--------------14----------|
d|-16------16--14--16------16--14--|
a|---------------------------------|
E|---------------------------------|

Part 3 (3.42-3.43)

e|-----------------------------|
b|-----------------------------|
g|--14h16---------14------14~--|    
d|---------14h16------16-------|
a|-----------------------------|
E|-----------------------------|

Part 4 (4.01-4.07) (4.10-4.16) (4.19-4.25) 

e|---------------------------------------------------------|
b|---------------------------------------------------------|
g|--14h16p14--------------------------14h16p14-------------|
d|------------16--14--16--14--16--14------------16--14--16-|
a|---------------------------------------------------------|
E|---------------------------------------------------------|

Part 5 (4.07-4.09) (4.16-4.18)
 
e|---------------------------------------------|
b|---------------------------------------------|
g|--16b17--(b16)--(b16)--(b16)--14h16--14------|    
d|-----------------------------------------16--|
a|---------------------------------------------|
E|---------------------------------------------|

Part 6 (4.26-4.28)

e|----------------------------------------------|
b|----------------------------------------------|
g|--16b17--16b17--16b17--16--14h16--14------14--|    
d|--------------------------------------16------|
a|----------------------------------------------|
E|----------------------------------------------|


Key:
h=hammer
p=pull off
b=bend
(b16)=play the bent 16 so it sounds like 17 - don't rebend the string
~=let ring


Guitar 3:

Part 1 (3.39-3.42) 

e|---------------------------------------------|
b|---------------------------------------------|
g|-16b17--(b16)--(b16)--14h16--14----------14--|  
d|---------------------------------14h16-------|
a|---------------------------------------------|
E|---------------------------------------------|

Part 2 (3.57-4.00) (4.19-4.22) 

e|---------------------------------|
b|---------------------------------|
g|-16b17r16--14--16--16--16--16--14|
d|---------------------------------|
a|---------------------------------|
E|---------------------------------|

Part 3 (4.22-4.24)

e|-----------------------------------|
b|-----------------------------------|
g|--16b17--14h16--14-------------14--|
d|--------------------14h16--14------|
a|-----------------------------------|
E|-----------------------------------|


Key:
h=hammer
p=pull off
b=bend
(b16)=play the bent 16 so it sounds like 17 - don't rebend the string
~=let ring

I hope this tab helps, I know its not perfect but it is pretty good give
it a bit of effort and you will get it...the times are approx some mite
be a wee bit off but I hope this helps - it was fun to tab it is a great song !

Any comments - struan_88@hotmail.com
Comments