Oasis - Supersonic Chords & Tabs

 

Supersonic Chords & Tabs

Oasis Chords & Tabs

Version: 1 Type: Tab 1 rating
1 star 2 stars 3 stars 4 stars 5 stars
comments

Supersonic Tab

-------------------OASIS SUPERSONIC -by simon welch----------------

[ Tab from: http://www.guitartabs.cc/tabs/o/oasis/supersonic_tab.html ]
 --------------0--------------}--------------------  r
 -----------------0-----------}--0-------0--0------  e
 ---------2----------2--------}--2-------2--2------  p  X3
 ------4----------------4--0--}--2-------1--1------  e
 ---4-------------------4--0--}--0----0--2--2------  a
 -----------------------------}--------------------  t
        i need to be myself                  i can't be no-one else 
 -----------------------------}--------------7----------}--7-------------------}
 -----0-----------------------}-----------------5-------}----------------------}
 -----2-----------------------}----------------------6--}--6-------------------}
 -----1------------4--4~~~~~~~}~~~~~~~~~~~4-------------}----------------------}
 --0--2--2/3/2--0-------------}-------------------------}----------------------}
 -----------------------------}-------------------------}----------------------}
        i'm feeling supersonic give me gin and tonic You can have it all but how
 -----------------------------}--------------7----------}--7-------------------}
 -----0-----------------------}-----------------5-------}----------------------}
 -----2-----------------------}----------------------6--}--6-------------------}
 -----1------------4--4~~~~~~~}~~~~~~~~~~~4-------------}----------------------}
 --0--2--2/3/2--0-------------}-------------------------}----------------------}
 -----------------------------}-------------------------}----------------------}
     much do you want it? You make me laugh give me your autograph
 -----------------------------}--------------7----------}--7-------------------}
 -----0-----------------------}-----------------5-------}----------------------}
 -----2-----------------------}----------------------6--}--6-------------------}
 -----1------------4--4~~~~~~~}~~~~~~~~~~~4-------------}----------------------}
 --0--2--2/3/2--0-------------}-------------------------}----------------------}
 -----------------------------}-------------------------}----------------------}

      can i ride with u in your BMW? you can sail with me in my yellow submarine
 -----------------------------}--------------7----------}--7-------------------}
 -----0-----------------------}-----------------5-------}----------------------}
 -----2-----------------------}----------------------6--}--6-------------------}
 -----1------------4--4~~~~~~~}~~~~~~~~~~~4-------------}----------------------}
 --0--2--2/3/2--0-------------}-------------------------}----------------------}
 -----------------------------}-------------------------}----------------------}
      you need to find a way for what u wanna say
 -----------------------------}-------------------------}---------------4------}
 -----------------------------}-------------------------}----6-6---------------}
 -----------------------------}-------------------------}-4-------4------------}
 -----------------------------}-------------------------}-6----------6---------}
 ----2-2-2-2-2-2-2-2-2-2-2-2--}-2-2-2-2-2-2-2-2-2-2-2-2-}----------------------}
 ----0-0-0-0-0-0-0-0-0-0-0-0--}-0-0-0-0-0-0-0-0-0-0-0-0-}----------------------}
  but beofre tommorow
 --------------4--------------} 
  -4-------4------------------}   repeat through verse
 --6------------6-------------}
 -----------------------------}
 -----------------------------}

 riff:
 
 noboady could ever hear him call

 --------------------------17--------------------------------------------------
  16/18--16--18--16--14-------16/17--16--14--14---------14/16/14---------------
 ------------------------------------------------14/16------------16-----------
 ------------------------------------------------------------------------------
 ------------------------------------------------------------------------------
 ------------------------------------------------------------------------------

              by simon welch
      thanks 

      any comments or question email me neo_1559@yahoo.com
 
Comments