Oasis - Supersonic Chords & Tabs

 

Supersonic Chords & Tabs

Oasis Chords & Tabs

Version: 3 Type: Bass Tab 0 ratings
1 star 2 stars 3 stars 4 stars 5 stars
comments

Supersonic Bass Tab

   
------------------------------------------------------------------

OASIS  -  SUPERSONIC

TRACK 6 FROM DEFINITELY MAYBE

VERSE:
   F#      F#      A       B
G|--------------------------------
D|--------------------------------
A|-----------------0-0-0-2---2-2-2
E|-2-2-2-0-2-2-0-0----------------
  I need to be myself..


PRE-CHORUS:
   E                               F#
G|------------------------------------------------------------
D|------------------------------------------------------------
A|------------------------------------------------------------
E|-0-0-0-0-0-0-0-0-0-0-0-0-0-0-0-0-2-2-2-2-2-2-2-2-2-2-2-2-2-2
  find out..                        on about..
[ Tab from: http://www.guitartabs.cc/tabs/o/oasis/supersonic_btab_ver_3.html ]
   E                               C#
G|------------------------------------------------------------
D|------------------------------------------------------------
A|---------------------------------4-4-4-4-4-4-4-4-4-4-4-4-4-4
E|-0-0-0-0-0-0-0-0-0-0-0-0-0-0-0-0----------------------------
  find a way for..                       but before tomorrow..


CHORUS:
   D       A       E       F
G|--------------------------------
D|-0---0-0------------------------
A|---------0---0------------------
E|-----------------0---0-0-1-1-1-1
  my friend said hed..


POST-CHORUS:
Sustain each note
  E               C#
G|-------------------------------
D|-------------------------------
A|----------------4--------------
E|0------------------------------
  Ah              ah

Verse       X8
Pre-chorus
Chorus      X8
Post-Chorus
Verse       X8
Pre-Chorus
Chorus      Repeat to fade

TABBED BY JOHN

If you have any queries or bass tab I might be interested in please E-mail me.

John Hobson	100031.1306@compuserve.com




Comments