Oasis - Step Out Chords & Tabs

 

Step Out Chords & Tabs

Oasis Chords & Tabs

Version: 1 Type: Tab 2 ratings
1 star 2 stars 3 stars 4 stars 5 stars
comments

Step Out Tab

Well let's see

it's something like this:

|-------------------------------------------------------------------
|-7^7-7-7-7/5-3-3--3-0-3-3-0-3-5-3-5/7-7-5/3-5/7-7-7-7/5-3-3--------
|-------------------------------------------------------------------
|-------------------------------------------------------------------
|-------------------------------------------------------------------
|-------------------------------------------------------------------

|-----------------------|-----5-------------5-----------------------
|-3-0-3-3-0-3-5/7-5-3---|-5/7---7/5-3-5-5/7---7/5-3--3-0-3-3-0-3----
|-----------------------|-------------------------------------------
|-----------------------|-------------------------------------------
|-----------------------|-------------------------------------------
|-----------------------|-------------------------------------------

|-------------------------------------------------------------------
|-5-3-5/7-7 5/3-5/7-7-7-7-7/5-3-3--3-0-3-5-3-5/7-5/3----------------
|-------------------------------------------------------------------
|-------------------------------------------------------------------
|-------------------------------------------------------------------
|-------------------------------------------------------------------

As you can see it's very easy
[ Tab from: http://www.guitartabs.cc/tabs/o/oasis/step_out_tab.html ]
Here, you play the verses and the chorus and then there is
another riff:

|--------------------------------------5---------------7-5----------
|-7^7-7-7-7/5-3-3--3-0-3-3-0-3-5-3-5/7---7/5-3-3-3-5/7-----7-7/5-3-3
|-------------------------------------------------------------------
|-------------------------------------------------------------------
|-------------------------------------------------------------------
|-------------------------------------------------------------------

|-------------------------------|-------10------------------10------
|-3-0-3-3-3-5/7-5/3-3-3-3-0-0-0-|-10/12----12/10-8-10-10/12----12/10
|-------------------------------|-----------------------------------
|-------------------------------|-----------------------------------
|-------------------------------|-----------------------------------
|-------------------------------|-----------------------------------

|--------5-----------5----------------------------------------------
|-8--5/7---7/5-5-5/7---7/5-3--3-0-3-3-0-3-3-0-2-2-2-2-2-2-2-2-2-2---
|---------------------------------------------2-2-2-2-2-2-2-2-2-2---
|---------------------------------------------2-2-2-2-2-2-2-2-2-2---
|---------------------------------------------0-0-0-0-0-0-0-0-0-0---
|-------------------------------------------------------------------

It's mine:

Godo Monge - FIND

México City
Comments