Oasis - Stand By Me Chords & Tabs

 

Stand By Me Chords & Tabs

Oasis Chords & Tabs

Version: 2 Type: Tab 1 rating
1 star 2 stars 3 stars 4 stars 5 stars
comments

Stand By Me Tab

   
#----------------------------------PLEASE NOTE---------------------------------#
#This file is the author's own work and represents their interpretation of the #
#song. You may only use this file for private study, scholarship, or research. #
#------------------------------------------------------------------------------#
#

Date: Fri, 31 Oct 1997 13:00:11 -0500 (EST)
From: Fred Lidskog 
To: guitar@olga.net
Subject: TAB: "Stand By Me" by Oasis 

"Stand By Me"
Performed by Oasis
>From the album "Be Here Now" on Sony/Creation records
Music by: N. Gallagher
Lyrics by: N. Gallagher
-------------
Tabbed by Fred Lidskog 

Chords used:

 EADBGe
G(3x0033)
B7add11(x21200), while one guitar plays "B7add11", the other plays B7
(x24242)
C(x32010)
C/B(x2x010), or try this as G/B (x20033) if you'd like
D(xx0232)
D/F#(2x0232), or perhaps you'D like D5/F# (2x02xx) or (2x023x) better
Em(022000)
A(x02220)
F(x33211)

Tab Key:
b = bend (7b8 means bend the string at the 7th fret to make approximately
   the note the string would make if played at the 8th fret with no bend)
r = release bend
h = hammer on
p = pull off
s = slide (a quick slide, the two notes sound almost like one note)
/ = slower slide (sounds like two separate notes)
> = play string at specified fret and slide finger(s) down the string an
    unspecified distance
() = harmonics, (12) means lightly touch the string directly past the 12th
fret then pick the string
~ = vibrato (vibrate note)


NOTE: When the one guitar plays a B7addE, it's played something like this:

   B7add11
e-----------0--------------------------------------
B--0---0------0---0--------------------------------
G--2---2--2-----2-2--------------------------------
D--1---1--1-------1--------------------------------
A--2---2----------2--------------------------------
E--------------------------------------------------


Intro
=====

e--------------------------------------------------
B--------------------------------------------------
G--------------------------------------------------
D--------------------------------------------------
A--------------------------------------------------
E--12~~/-3~~~~~~~~~~~~~~-(amplifier feedback here)-

  GB7add11   C   C/B           D         G
e------------------------------------------------------------------------------
B------------------------------------------------------------------------------
G----------------------------12--14--14b16r-14b16r14--12h14--12--12~~~~12--12--
D----------------------12h14---------------------------------------------------
A------------------------------------------------------------------------------
E------------------------------------------------------------------------------

   B7add11      C    C/B    D
e------------------------------------------------------------------------------
B------------------------------------------------------------------------------
G--11----------12----12~~---------12h14-12--14bbb16---14b16r14--12h14--12-12~>-
D--------12h14----14--------12h14----------------------------------------------
A------------------------------------------------------------------------------
E------------------------------------------------------------------------------

Verse 1
-------
G   B7add11       C
___________________________
      C/B       D
___________________________
G   B7add11
___________________________
  CC/B       D
__________________________


Pre-Chorus:
-----------

     C  D

e---------------------------------------------------------------------------
B---------------------------------------------------------------------------
G-14>-----------------------------------------------------------------------
D--x-------------------------------5--7-------------------------------------
A-12>--0--2--3----------------5s7--------5----------------------------------
E---------------------------------------------------------------------------

 G          D/F#      Em
    
e---------------------------------------------------------------------------
B---------------------------------------------------------------------------
G---------------------------------------------------------------------------
D-----5---------------------------------------------------------------------
A-5h7-----------------------------------------------------------------------
E--------3----------2---------0---------------------------------------------

      A C
  
e---------------------------------------------------------------------------
B---------------------------------------------------------------------------
G---------------------------------------------------------------------------
D---------------------------------------------------------------------------
A-----0-------------------------------2--3----------------------------------
E---------------------------------------------------------------------------

    D

e---------------------------------------------------------------------------
B---------------------------------------------------------------------------
G---------------------------------------------------------------0--0h2--0---
D----------------------------------------------------------0h2--------------
A-----------5---------------------------------------------------------------
E---------------------------------------------------------------------------


Verse 2
-------

e-----------------------------------------------------------------------------
B-----------------------------------------------------------------------------
G--------------------------------------12h14--12--14b16r14--12h14--12--12~~~>-
D-------------------------------12h14-----------------------------------------
A-----------------------------------------------------------------------------
E-----------------------------------------------------------------------------


Pre-Chorus (Guitars 1 and 2 play the same thing as previous pre-chorus)
----------

e-------------------------------------------------------------------------
B-------------------------------------------------------------------------
G---------------------------------------12h14-12----12-----14b16r14-12----
D---------------------------------12h14----------14--------------------14-
A-------------------------------------------------------------------------
E-------------------------------------------------------------------------

 (G)
e----------------------------
B----------------------------
G-14b16r14-12----12~~~~~-----
D-------------14-------------
A----------------------------
E----------------------------


Chorus
------
G          D            Am          
  
e---------------------------------------
B---------------------------------------
G--------------14b16r14-12--14~~b16--12-
D---------------------------------------
A---------------------------------------
E---------------------------------------

          C     F    D/F#   G
 
e-------------------------------------------
B-------------------------------------------
G-------------------------------------------
D-------------------------------------------
A----------------------3-x-x----------------
E----------------------------1-x-x-2-x-x-3--

G          D            Am          
   
e---------------------------------------
B---------------------------------------
G--------------14b16r14-12--14~~b16--12-
D---------------------------------------
A---------------------------------------
E---------------------------------------

          C     F    D/F#   G
 
e-------------------------------------------
B-------------------------------------------
G-------------------------------------------
D-------------------------------------------
A----------------------3-x-x----------------
E----------------------------1-x-x-2-x-x-3--

G          D            Am          
      
e---------------------------------------
B---------------------------------------
G--------------14b16r14-12--14~~b16--12-
D---------------------------------------
A---------------------------------------
E---------------------------------------

          C     F    D/F#   G
 
e-------------------------------------------
B-------------------------------------------
G-------------------------------------------
D-------------------------------------------
A----------------------3-x-x----------------
E----------------------------1-x-x-2-x-x-3--

G          D    Am
  
e-------------------------------------------------------------------
B-------------------------------------------------------------------
G-------12-11--14b16r14-12--14~~b16--12--14b16r14-12--14~~b16--12---
D-12h14-------------------------------------------------------------
A-------------------------------------------------------------------
E-------------------------------------------------------------------

  C     D       G
 
e--------------------------------------------------------------------
B--------------------------------------------------------------------
G-14b16r14-12--14~~b16--12--12---12--12/11--11/9--9/7--7--------0----
D---------------------------------------------------------------0----
A--------------------------------------------------------------------
E--------------------------------------------------------------------
[ Tab from: http://www.guitartabs.cc/tabs/o/oasis/stand_by_me_tab_ver_2.html ]
      (G)
 (If you're...)
e-------------------------
B-------------------------
G----------0--------------
D-------0-----------------
A--2h3--------3--2--0-----
E----------------------3--

Verse 3
-------

e---------------------------------------------------------------------------
B---------------------------------------------------------------------------
G-----------------------------------------------12--14b16r14-12------12~~~>-
D---------------------------------------12--14-------------------14---------
A------------------------------10-12/14-------------------------------------
E---------------------------------------------------------------------------

e----------------------------------------------------
B----------------------------------------------------
G-------------------------------14b16-----b16r14--12-
D----------------------------------------------------
A----------------------------------------------------
E----------------------------------------------------
  C         D

e-----------------------------------
B-----------------------------------
G-12~~~~~~~~~~~-----12--12--12h14---
D-----------------------------------
A-----------------------------------
E-----------------------------------
           G
e---------------------------------------------------------------------------
B-------------------------------------------------------------12------------
G----------------------12--14---12----12----------12----------------12------
D---------------12h14--------------14-------12h14-------12h14----12---------
A---------------------------------------------------------------------------
E---------------------------------------------------------------------------

Chorus
------
G          D            Am          
  Stand by me____________    
e---------------------------------------
B---------------------------------------
G--------------14b16r14-12--14~~b16--12-
D---------------------------------------
A---------------------------------------
E---------------------------------------

          C     F    D/F#   G
 
e-------------------------------------------
B-------------------------------------------
G-------------------------------------------
D-------------------------------------------
A----------------------3-x-x----------------
E----------------------------1-x-x-2-x-x-3--

G          D            Am          
  Stand by me_____________    
e---------------------------------------
B---------------------------------------
G--------------14b16r14-12--14~~b16--12-
D---------------------------------------
A---------------------------------------
E---------------------------------------

          C     F    D/F#   G
 
e-------------------------------------------
B-------------------------------------------
G-------------------------------------------
D-------------------------------------------
A----------------------3-x-x----------------
E----------------------------1-x-x-2-x-x-3--

G          D            Am          
    
e---------------------------------------
B---------------------------------------
G--------------14b16r14-12--14~~b16--12-
D---------------------------------------
A---------------------------------------
E---------------------------------------

          C     F    D/F#   G
 
e-------------------------------------------
B-------------------------------------------
G-------------------------------------------
D-------------------------------------------
A----------------------3-x-x----------------
E----------------------------1-x-x-2-x-x-3--

G          D    Am
  
e-------------------------------------------------------------------
B-------------------------------------------------------------------
G-------12-11--14b16r14-12--14~~b16--12--14b16r14-12--14~~b16--12---
D-12h14-------------------------------------------------------------
A-------------------------------------------------------------------
E-------------------------------------------------------------------

  C     D      (Em)
  
e---------------------------------------------------------
B---------------------------------------------------------
G-14b16r14-12--14~~b16--12--12---12--12/11--11/9--9/7--7--
D---------------------------------------------------------
A---------------------------------------------------------
E---------------------------------------------------------

Bridge/Guitar Solo:
-------------------

     Em                 D          C
    
e-------------------------------------------------------
B-------------------------------------------------------
G----11h12--11------------------------------------------
D---------------14--12--12h14--12--12-------------------
A-------------------------------------------------------
E-------------------------------------------------------
  Em      D       C    
    
e-------------------------------------------------------------
B-------------------------------------------------------------
G-11h12--11----------------11--12----14b16r14-12-14b16r14-12--
D------------14--12----12-------------------------------------
A-------------------------------------------------------------
E-------------------------------------------------------------

  Em     DC
   
e-------------------------------------------------------------
B-----------------------------------------faint:--------------
G-11h12--11------------------------12--12--------12-------12--
D------------14--12--12h14--12--14---------12h14----12h14-----
A-------------------------------------------------------------
E-------------------------------------------------------------

               (G)
e---------------------------------------------------------------------------
B---------------------------------------------------------------------------
G-----------------------------12-12/11-11/9-9/7-7/5-5/4-4/2-2p0-0-2-2bbb4---
D---------------------------------------------------------------------------
A---------------------------------------------------------------------------
E---------------------------------------------------------------------------


Final Chorus
------------

G          D      Am
  
e------------------------------------------
B------------------------------------------
G-------12--14---14b16r14--12--14~~b16-12--
D-12h14------------------------------------
A------------------------------------------
E------------------------------------------

                    C   F           D/F#      G

e-------------------------------------------------------------
B-------------------------------------------------------------
G-------------------14b16r14-12----12-14b16r14-12----12--12---
D-------------------------------14----------------14----------
A-------------------------------------------------------------
E-------------------------------------------------------------

G          D      Am
  
e------------------------------------------
B------------------------------------------
G-------12--14---14b16r14--12--14~~b16-12--
D-12h14------------------------------------
A------------------------------------------
E------------------------------------------

                    C   F           D/F#      G

e-------------------------------------------------------------
B-------------------------------------------------------------
G-------------------14b16r14-12----12-14b16r14-12----12--12---
D-------------------------------14----------------14----------
A-------------------------------------------------------------
E-------------------------------------------------------------

G          D      Am
 
e------------------------------------------
B------------------------------------------
G-------12--14---14b16r14--12--14~~b16-12--
D-12h14------------------------------------
A------------------------------------------
E------------------------------------------

                    C   F           D/F#      G

e-------------------------------------------------------------
B-------------------------------------------------------------
G-------------------14b16r14-12----12-14b16r14-12----12--12---
D-------------------------------14----------------14----------
A-------------------------------------------------------------
E-------------------------------------------------------------

G          D    Am
  
e-------------------------------------------------------------------
B-------------------------------------------------------------------
G-------12-11--14b16r14-12--14~~b16--12--14b16r14-12--14~~b16--12---
D-12h14-------------------------------------------------------------
A-------------------------------------------------------------------
E-------------------------------------------------------------------

   C              D   G  
 
e---------------------------------------------------------------------------3-
B--------------------------------------------------------------------1p0--0---
G----------12--12/11--11/9--9/7--7/5--5/4--4/2--2p0--0--2--2bbbbb4------------
D-----------------------------------------------------------------------------
A-----------------------------------------------------------------------------
E-----------------------------------------------------------------------------

Questions, comments, corrections, requests to swede@email.unc.edu
Comments