Oasis - Stand By Me Chords & Tabs

 

Stand By Me Chords & Tabs

Oasis Chords & Tabs

Version: 1 Type: Tab 0 ratings
1 star 2 stars 3 stars 4 stars 5 stars
comments

Stand By Me Tab

   
Stand by me

From Dave Curtis 

Chords:
G320033
B7sus4x21200
Cx32010
C2/B  x20010
Dxx0232
Em022000
Ax02220
Amx02210
Fmaj7xx3210
D7/F#2x0210
Cadd9x32033


Intro:
         G  B7sus4  C
e--------3------0-------0-
B--------3------0-------1-
G--------0------2-------0-
D--------0------1-------2-
A--------2------2-------3-
E-/12-3--3------x-------x-

Then

 C2/B      D                      G    B7sus4       C2/B   D
e------------------------------------------------------------------------
B-----8---10b12-10b12-10-8h10-8-8--8-8-7-----8---8---------8---8---10b12-
G-7h9---9--------------------------------7h9---9---7-7-7h9---9---9-------
D------------------------------------------------------------------------
A------------------------------------------------------------------------
E------------------------------------------------------------------------


e-------------------
B-10b12-10-8h10-8-8-
G-------------------
D-------------------
A-------------------
E-------------------



B------------
G------------
D------------
A------------
  E-0/12-5-7-8-

Pre Chorus:

C D

     e---------------------------------------
     B---------------------------------------
     G---------------------------------------
     D-----5-------------------5-------------
     A-5/7---7-5---------0-5/7------------/5-
     E---------------------------------------

G       D  Em

e------------
B------------
G------------
D------------
A-/3------/2-
E------------

  
B---------------
G-2b3-2-0h2-0-0-
D---------------
A---------------
E---------------



B-----8---8-10b12-10-8h10-8-8-
G-7h9---9---------------------
D-----------------------------
A-----------------------------
E-----------------------------



B------------
G------------
D------------
A------------
  E-0/12-5-7-8- 

Pre Chorus:


     e---------------------------------------
     B---------------------------------------
     G---------------------------------------
     D-----5-------------------5-------------
     A-5/7---7-5---------0-5/7------------/5-
     E---------------------------------------


e------------
B------------
G------------
D------------
A-/3------/2-
E------------

  
    B-----8---8---8-10b12-8h10-10b12-8h10-8-
    G-7h9---9---9---------------------------
    D---------------------------------------
    A---------------------------------------
    E---------------------------------------


     B-10b12-10-8-10-10b12-8-
     G-----------------------
     D-----------------------
     A-----------------------
     E-----------------------
             
           
e-------------------------------------
B-----8---8---8-10b12-10-8-10-10b12-8- 
G-7h9---9---9-------------------------
D-------------------------------------
A-------------------------------------
E-------------------------------------

            
e-------------------------------------
B-----8---8---8-10b12-10-8-10-10b12-8- 
G-7h9---9---9-------------------------
D-------------------------------------
A-------------------------------------
E-------------------------------------

            
e------------------------------------------------------------
B-----8---8---8-10b12-10-8-10-10b12-8--10b12-10-8-10-10b12-8- 
G-7h9---9---9------------------------------------------------
D------------------------------------------------------------
A------------------------------------------------------------
E------------------------------------------------------------

  
e-----------------------------------------------
B-10b12-10-8-10-10b12-8-8-8-8-8-7-7-------------
G-----------------------------------9-9-7-7-----
D-------------------------------------------5-5-
A-----------------------------------------------
E-----------------------------------------------


B-----------8-10b12-10p8---8-
G-0h2-7-7-9--------------9---
D----------------------------
A----------------------------
E----------------------------


B------------
G------------
D------------
A------------
  E-0/12-5-7-8- 

Pre Chorus:

[ Tab from: http://www.guitartabs.cc/tabs/o/oasis/stand_by_me_tab.html ]
     e---------------------------------------
     B---------------------------------------
     G---------------------------------------
     D-----5-------------------5-------------
     A-5/7---7-5---------0-5/7------------/5-
     E---------------------------------------


e------------
B------------
G------------
D------------
A-/3------/2-
E------------

  
    B-----8---8---8-10b12-8h10-10b12-8h10-8-
    G-7h9---9---9---------------------------
    D---------------------------------------
    A---------------------------------------
            E---------------------------------------


Chorus:


     B-10b12-10-8-10-10b12-8-
     G-----------------------
     D-----------------------
     A-----------------------
     E-----------------------
             
           
e-------------------------------------
B-----8---8---8-10b12-10-8-10-10b12-8- 
G-7h9---9---9-------------------------
D-------------------------------------
A-------------------------------------
E-------------------------------------

       
e-------------------------------------
B-----8---8---8-10b12-10-8-10-10b12-8- 
G-7h9---9---9-------------------------
D-------------------------------------
A-------------------------------------
E-------------------------------------

         
e------------------------------------------------------------
B-----8---8---8-10b12-10-8-10-10b12-8--10b12-10-8-10-10b12-8- 
G-7h9---9---9------------------------------------------------
D------------------------------------------------------------
A------------------------------------------------------------
E------------------------------------------------------------

  
e-----------------------------------------------
B-10b12-10-8-10-10b12-8-8-8-8-8-7-7-------------
G-----------------------------------9-9-7-7-----
D-------------------------------------------5-5-
A-----------------------------------------------
E-----------------------------------------------


B-7b9-7-----------
G-------9-7-9-7-7-
D-----------------
A-----------------
E-----------------


   B-7-7b9-7-------10-7-8-10b12-10-8-10-10b12-10-8-
           G---------9-7-9---------------------------------
   D-----------------------------------------------
   A-----------------------------------------------
   E-----------------------------------------------


B-7b9-7-----------------
G-------9-7-9-7-9-12-12-
D-----------------------
A-----------------------
E-----------------------


    B-8-7-7-------------------------------
    G-------9-9-7-7-5-5-4-4-2-2-0-2-0-2b4-
    D-------------------------------------
    A-------------------------------------
            E-------------------------------------



     B-10b12-10-8-10-10b12-8-
     G-----------------------
     D-----------------------
     A-----------------------
     E-----------------------
             
         
B-10b12-8---8-10b12-8---8---8-
G---------9-----------9---9---
D-----------------------------
A-----------------------------
E-----------------------------


e-------------------------------------
B-----8---8---8-10b12-10-8-10-10b12-8- 
G-7h9---9---9-------------------------
D-------------------------------------
A-------------------------------------
E-------------------------------------

         
B-10b12-8---8-10b12-8---8---8-
G---------9-----------9---9---
D-----------------------------
A-----------------------------
E-----------------------------

e-------------------------------------
B-----8---8---8-10b12-10-8-10-10b12-8- 
G-7h9---9---9-------------------------
D-------------------------------------
A-------------------------------------
E-------------------------------------

           
B-10b12-8---8-10b12-8---8---8-
G---------9-----------9---9---
D-----------------------------
A-----------------------------
E-----------------------------

        B-10b12-10-8-10-10b12-8-
        G-----------------------
        D-----------------------
        A-----------------------
        E-----------------------
 
        
e-----------------------
B-10b12-10-8-10-10b12-8-
G-----------------------
D-----------------------
A-----------------------
E-----------------------


e-----------------------------------------
B-10b12-8-8-7-7---------------------------
G---------------9-9-7-7-5-5-4-4-2-2-0-2b4-
D-----------------------------------------
A-----------------------------------------
E-----------------------------------------
Comments