Oasis - Stand By Me Chords & Tabs

 

Stand By Me Chords & Tabs

Oasis Chords & Tabs

Version: 2 Type: Bass Tab 0 ratings
1 star 2 stars 3 stars 4 stars 5 stars
comments

Stand By Me Bass Tab

   
Stand By Me- Oasis	
Be Here Now

Intro

G-----------------------------------------------
D-----------------------------------------------
A-----0-2----2-3---5-----------0-2----2-3-----5-
E-3--------------------3-3----------------------

Verse

G----------------------------------------------------------
D----------------------------------------------------------
A--------------2-2--0-2-2-0-3-3-3-3-2-2-2-2-5-5-5-5-5-5-5-5
E-3-3--1-3-3-1---------------------------------------------

Bridge

	So what's the matter...
[ Tab from: http://www.guitartabs.cc/tabs/o/oasis/stand_by_me_btab_ver_2.html ]
G-------------------------------------------------------------------------------
D-------------------------------------------------------------------------------
A-3-3--1-3-3-1-5-5--3-5-5-3-------------------------------------------3-3-3-3-3-
E---------------------------3-3-2-2-2-0-0-0-0-0-0-0-0-5-5-5-5-5-5-5-5-----------

G---------------------------------------
D---------------------------------------
A-3-3-3-5-5-5-5-5-5-5-5-5-5-5-5-5-5-5-5-
E---------------------------------------

Chorus

G--------------------------------------------------------
D--------------------------------------------------------
A--------------5-5--3-5-5-3--------------3-3-------------
E-3-3--1-3-3-1--------------5-5--3-5-5-3-----1-1-2-2-3-3-

Solo

G--------------------------------
D--------------------------------
A-7-7-7-7-5-5-5--3-3-3-3-3-3-3-3-
E--------------------------------

From: michael crowder 
Comments