Oasis - Some Might Say Chords & Tabs

 

Some Might Say Chords & Tabs

Oasis Chords & Tabs

Version: 2 Type: Tab 0 ratings
1 star 2 stars 3 stars 4 stars 5 stars
comments

Some Might Say Tab

   
-------------------------------------------------------------------------------
			     Some Might Say - Oasis
-------------------------------------------------------------------------------
Tabbed by: Marcus
Email: punkrockguitar_9@hotmail.com

B=Bend
S=Slide 
H=Hammer-On
P=Pull-off

Tuning: Standard
Intro 
    D5                             Bsus2                       G
e|----------------------------------------------------------------------3----|
B|-----------------------------------------2-----2-----2------------------3--|
G|---------------------------------2s4-------4-----4-----4------------4-----4|
D|---7---9---7---9-7-7-9---7---7---2s4-4-------4-----4-----4---4s5-5---------|
A|---5-5-5-5-5-5-5-5-5-5-5-5-5-5---0s2-2-----------------------4s5-5---------|
E|---------------------------------------------------------------------------|
     D                A
e|---2-----0-----------------------------------------------------------------|
B|-----3------3---0---2-3-2-3-3-2--3---3-3-3-3-------------------------------|
G|-------2------2-----2-2-2-2-2-2--2---2-2-2-2-------------------------------|
D|---0----------------2-2-2-2-2-2--2---2-2-2-2-------------------------------|
A|--------------------0-0-0-0-0-0----0-----0---------------------------------|
E|---------------------------------------------------------------------------|
Solo 1 
    D                                   Bm
e|-----------------------2----------------------------------------3--2--0----|
B|---5b--5--3--5--3--5b-----5--3-------------3--5--5b----3--5--3--3--------3-|
G|--------------------------------2--2--2h4----------------------------------|
D|---------------------------------------------------------------------------|
A|---------------------------------------------------------------------------|
E|---------------------------------------------------------------------------|
     G                     D                           A
e|--s5-5-5s3--2--3--2-----s5--5--5--5--7--5--7s5b----------------------------|
B|--s5-5-5s3--3--3--3-----s7--7--7--7------------------------2--2--2-----2---|
G|---------------------2-------------------------------------2--2--2-----2---|
D|-----------------------------------------------------------2--2--2-----2---|
A|-----------------------------------------------------0--0-----------0------|
E|---------------------------------------------------------------------------|

e|------------------------|
B|---2--2--2-----2--2-----|
G|---2--2--2-----2--2-----|
D|---2--2--2-----2--2-----|
A|------------0-----------|
E|------------------------|

D				     Bsus2
Some might say that sunshine follows thunder
       G	      D	             A
Go and tell it to the man who cannot shine
D				    Bsus2
Some might say that we should never ponder
       G		  D		      A
On our thoughts today cos they will sway over time


Pre-chorus
----------
	   Em	       G	       D
Some might say we will find a brighter day
	   Em	       Cadd9	       G
Some might say we will find a brighter day   yeah

[ Tab from: http://www.guitartabs.cc/tabs/o/oasis/some_might_say_tab_ver_2.html ]
Chorus
------
 	      D		      G		  Em          G		   D G Em G
Cos I've been standing at the station, in need of education in the rain
    D 		 G	 Em         G	         D    G   Em    G
You made no preparation, for my reputation once again
    D		    G	    Em		    G		  D     G    Em  G
The sink is full of fishes, she's got dirty dishes on the brain
D  	    G	    Em          G          D     G    Em      G
Overflowing gently, it's all elementary my friend

Solo 2
 F#m          F		   C		    A
e----------------------------------------------------5--7--10--12------|
B-5s7--5--3--3--5-5b--3--3--3---3--5b---3--3--3--5s7-------------------|
G-----------------------------4----------------------------------------|
D----------------------------------------------------------------------|
A----------------------------------------------------------------------|
E----------------------------------------------------------------------|
Verse
-----
D                                    Bsus2
Some might say they don't beleive in heaven
      G               D                A
Go and tell it to the man who lives in hell
D                                       Bsus2
Some might say you get what you've been given
       G               D                   A
If you don't get yours I won't get mine as well

Pre-chorus
----------
	   Em	       G	       D
Some might say we will find a brighter day
	   Em	       Cadd9	       G
Some might say we will find a brighter day   yeah

Chorus
------
              D               G          Em          G            D G Em G
Cos I've been standing at the station in need of education in the rain
    D            G      Em          G           D  G Em G
You made no preparation for my reputation once again
    D		    G	    Em		    G		  D   G  Em  G
The sink is full of fishes she's got dirty dishes on the brain
D                 G        Em             G             D  G Em G
And my dog's been itchin', itchin' in the kitchen once again

Outro
-----
G              D        G       Em      
Some might say (some might say)
         G         D      G     Em      
You know what some might say
         G         D      G     Em
You know what some might say

Fade To End

End solo
--------
  D      G          Em       G         D
e---------------------------------------
B---------------------------------------
G---------------------------------------  x3
D----s4--2--0----------0-----0--2s4--0--
A----------------0--2-----2-------------
E---------------------------------------






================================================================
Comments