Oasis - Shakermaker Chords & Tabs

 

Shakermaker Chords & Tabs

Oasis Chords & Tabs

Version: 1 Type: Tab 0 ratings
1 star 2 stars 3 stars 4 stars 5 stars
comments

Shakermaker Tab

   
Shakermaker

From Dave Curtis 

Chords:

A:x02220
B7:x21200
B:x24442
F#:244322

Intro:
                                                      Audible slide
e|---------------------------------------0-----------
B|-------0------------0------------0-------0---0-----
G|-----2---2--------2---2--------2---2-------2---2---
D|---1-------1----1-------1----1-------1-----------1-
A|-2------------2------------2-----------------------
E|---------------------------------------------------

                                            
e|----------------------------------------0-----------
B|-------0-----------0-------------0--------0---0-----
G|-----7---7-------7---7---------2---2--------2---2---
D|---6-------6---6-------6-----1-------1------------1-
A|-7-----------7-------------2------------------------
E|----------------------------------------------------

Then play: A B7 B F#



Solo:
NOTE: Same Chords as Verse 

e|-------------------------------------------------------------------
B|-------------------------------------------------------------------
G|-------------------------------------------------------------------
D|-----9----------------9----------------9----------------9----------
A|-4/9---6b-----6---4/9---6b-----6---4/9---6b-----6---4/9---6b-----6-
E|----------5-5--------------5-5--------------5-5--------------5-5---

e|-----------------------------------------------------------------------
B|-----------------------------------------------------------------------
G|-----------------------------------------------------------------------
D|--------------------------------------------9----------------9---------
A|-----3h5-3b-0-3-5-------3h5-3b-0-3-5---4/9---6b-----6---4/9---6b-----6-
E|-0-0----------------0-0-------------------------5-5--------------5-5---
[ Tab from: http://www.guitartabs.cc/tabs/o/oasis/shakermaker_tab.html ]
e|-------------------------------------------------------------
B|-------------------------------------------------------------
G|--------------------6---8b-8-6-----6-----6-----6-8b10-8b10-8-
D|-----9----------4/8---8--------6h8---6h8---6h8---------------
A|-4/9---6b-----6----------------------------------------------
E|----------5-5------------------------------------------------

Chorus:



Outro:

e|---------------------------------------0-----------
B|-------0------------0------------0-------0---0-----
G|-----2---2--------2---2--------2---2-------2---2---
D|---1-------1----1-------1----1-------1-----------1-
A|-2------------2------------2-----------------------
E|---------------------------------------------------

e|---------------------------------------0-----------
B|-------0------------0------------0-------0---0-----
G|-----2---2--------2---2--------2---2-------2---2---
D|---1-------1----1-------1----1-------1-----------1-
A|-2------------2------------2-----------------------
E|---------------------------------------------------

e|----------------------------0------0-----0-----0-----0-----
B|-------0------------0---------0------0-----0-----0-----0---
G|-----2---2--------2---2---2-----2------2-----2-----2-----2-
D|---1-------1----1-------1----------------------------------
A|-2------------2--------------------------------------------
E|-----------------------------------------------------------

e|--------------------------------0--------------------0-----------
B|-------------0--------------------0--------------------0---0-----
G|-----2-----2----2-------2-----2-----2-------2-----2------2---2---
D|---1-----1------------1-----1-------------1-----1--------------1-
A|-2-----2------------2-----2-------------2-----2------------------
E|-----------------------------------------------------------------

e|--------------------------------0--------------------0-----------
B|-------------0--------------------0--------------------0---0-----
G|-----2-----2----2-------2-----2-----2-------2-----2------2---2---
D|---1-----1------------1-----1-------------1-----1--------------1-
A|-2-----2------------2-----2-------------2-----2------------------
E|-----------------------------------------------------------------
Comments