Oasis - Roll With It Chords & Tabs

 

Roll With It Chords & Tabs

Oasis Chords & Tabs

Version: 3 Type: Tab 0 ratings
1 star 2 stars 3 stars 4 stars 5 stars
comments

Roll With It Tab

-------------------------------------------------------------------------------
			     Roll with it - Oasis
-------------------------------------------------------------------------------
Tabbed by:Trepkos

Normal tuning,
I spent lots of time listenin to the song and with a bit of help from my fellow
guitarist friend. I produced this tab, it sounds right to me. enjoy!


Intro:
e|-----2------2--2--2------------------------------------------------------
B|-----1------1--1--1--0--------3--------3--3--3--0------------------------
G|-----2------2--2--2--0--------3--------3--3--3--0------------------------
D|-----0------------0--0--------2--------2--2--2--0------------------------
A|------------------------------3------------------------------------------
E|-------------------------------------------------------------------------
  continued                 X2   Pre-verse thing
e|----------------------------|--------------------------------------------|
B|-------3------3--3--3-------|-----------2---0------2---3-----2--0-----0--|
G|-------3------3--3--3-------|--------------------------------------------|
D|-------0------0--0--0-------|------2-------------------------------------|
A|----------------------------|---2--------------2----------2--------0-----|
E|---3------------------------|--------------------------------------------|
   Verse/Chorus                     Verse/chorus Fills
e|--------------------------------|----------------------------------------|
B|---3--3--3--3--3----3--3---3----|----------------------------------------|
G|---0--0--0--0--0----0--0---0----|----------------0-----------------------|
D|---0--0--0--0--0----0--0---0----|--------0----------0--------------------|
A|--------------------------------|---2h3----------------------------------|
E|---3--3--3--3--3----3--3---3----|------------3---------------------------|
  

[ Tab from: http://www.guitartabs.cc/tabs/o/oasis/roll_with_it_tab_ver_3.html ]
 Solo: (with some chorus effect) 
e|-------------------------------------------------------------------------|
B|-------------------------------------------------------------------------|
G|---2/4-----------2--2--0--2--0--0-----------4---4--4--4--4--4----0--0---0|
D|-------------------------------------------------------------------------|
A|-------------------------------------------------------------------------|
E|-------------------------------------------------------------------------|

e|-------------------------------------------------------------------------|
B|-------------------------------------------------------------------------|
G|---0--0---0--0--0------4--4--4--4--4--4--4---0--0--0---0--0--0--0--0-----|
D|-------------------------------------------------------------------------|
A|-------------------------------------------------------------------------|
E|-------------------------------------------------------------------------|

e|-----------------------------------------------------3-------------------|
B|-----------------------------------------------------3-------------------|
G|---4--4--4--4--4--4--4------0--0--0---0-----2--0-----0-------------------|
D|-----------------------------------------------------0-------------------|
A|-------------------------------------------------------------------------|
E|-----------------------------------------------------3-------------------|
Back to chorus fill              Outro
e|-------7--------7----------|---7-----7-\-3---5----7---7--7-\-5--3--------|
B|---------8---------8-------|------8--------------------------------------|
G|---7--------7--------8-----|---------------------------------------------|
D|---------------------------|---------------------------------------------|
A|---------------------------|---------------------------------------------|
E|---------------------------|---------------------------------------------|

The song order goes in:
Intro 
Preverse
chorus 
Verse with fills (listen out for them)
Verse with fills
Chorus
Solo
chorus 
Outro 
Comments