Oasis - Rock N Roll Star Chords & Tabs

 

Rock N Roll Star Chords & Tabs

Oasis Chords & Tabs

Version: 1 Type: Bass Tab 0 ratings
1 star 2 stars 3 stars 4 stars 5 stars
comments

Rock N Roll Star Bass Tab

   
Rock 'n' Roll Star- Oasis
Off of Definitely Maybe
Tabbed by Mike Crowder on 19 January, 2000
Email me at Michael_crowder@yahoo with corrections or comments


Intro/Verse

G----------------------------------------------------------
D--------------------7---7--------------------7---7--------
A-2--2-1-2-1-2-2---7---7---2--2-1-2-1-2-2---7---7----------
E----------------------------------------------------5--5-5

G-----------------------------------
D-----------------------------------
A----------------2--2-1-2-1-2-2-2-2-
E-5-5-0--0-0-0-0--------------------	x2

For the last part of the intro right before Liam starts, throw this bit: 

D---7---7-
A-7---7---
[ Tab from: http://www.guitartabs.cc/tabs/o/oasis/rock_n_roll_star_btab.html ]
Bridge

G-----------------------------------------------
D-----------------------------------------------
A-------------------------2--2-2--2-2-2--2-2--2-
E-4--4-4--4-4-0--0-0--0-0-----------------------	x3

G---------------------------------
D---------------------------------
A---------------------------------
E-0-0-0-0-0-0-0-0-2-2-2-2-2-2-2-2-

Chorus

G--------------------------------------------------
D--------------------------------------------7---7-
A-------------------------2--2-1-2-1-2-2---7---7---
E-5-5-5-3-1-0--0-0-0-0--0--------------------------	x3

Solo: Play verse riff

The end is a bunch of A and E mixed up, I can't quite figure it out. 


Comments