Oasis - Quick Peep Chords & Tabs

 

Quick Peep Chords & Tabs

Oasis Chords & Tabs

Version: 1 Type: Tab 0 ratings
1 star 2 stars 3 stars 4 stars 5 stars
comments

Quick Peep Tab

   
Oasis

7.A Quick Peep

 Dm
-5--------------------------------------
-6--------------------------------------
-7-----5---5---------------5---5--------
-7-5h7---7----7—5------5h7---7----7—5-7-
-5----------------8---------------------
----------------------------------------
[ Tab from: http://www.guitartabs.cc/tabs/o/oasis/quick_peep_tab.html ]
----------------------------------------
----------------------------------------
-----5---5------------------------------
-5h7---7----7—5----5h7-7-7-5-7—-5-------
----------------8-----------------8-5-5-
----------------------------------------

Outro
----------------------------------13b15-
-13s15-13-10----------------------------
-------------12-10-12p10----------------
-------------------------12-10-12-------
----------------------------------------
----------------------------------------
Comments