Oasis - Part Of The Queue Chords & Tabs

 

Part Of The Queue Chords & Tabs

Oasis Chords & Tabs

Version: 1 Type: Tab 0 ratings
1 star 2 stars 3 stars 4 stars 5 stars
comments

Part Of The Queue Tab

   
Good song, this.

Intro, verse
All of a sudden...
E--0-0---0-0-0-0----0---0-0-0-0-----1---1-1-1-1--3-3-3-3-3-3-3-|
B--1-1---1-1-1-1----0---0-0-0-0-----1---1-1-1-1--0-0-0-0-0-0-0-|
G--2-2---2-2-2-2----0---0-0-0-0-----2---2-2-2-2--0-0-0-0-0-0-0-|
D----2---2-2-2-2--2-2---2-2-2-2---3-3---3-3-3-3--0-0-0-0-0-0-0-|
A----0---0-0-0-0--2-2---2-2-2-2---3-3---3-3-3-3--2-2-2-2-2-2-2-|
E-----------------0-0---0-0-0-0---1-1---1-1-1-1--3-3-3-3-3-3-3-|

Bridge
Stand tall...
E--1-1-1-1-1-1-1--...--0-0-0-0-0-0-0--|
B--1-1-1-1-1-1-1--...--1-1-1-1-1-1-1--|
G--2-2-2-2-2-2-2--...--2-2-2-2-2-2-2--|
D--3-3-3-3-3-3-3--...--2-2-2-2-2-2-2--|
A--3-3-3-3-3-3-3--...--0-0-0-0-0-0-0--|
E--1-1-1-1-1-1-1--...-----------------|

Verse
They’ve got the faces in places...
E--0-0---0-0-0-0----0---0-0-0-0-----1---1-1-1-1--3-3-3-3-3-3-3-|
B--1-1---1-1-1-1----0---0-0-0-0-----1---1-1-1-1--0-0-0-0-0-0-0-|
G--2-2---2-2-2-2----0---0-0-0-0-----2---2-2-2-2--0-0-0-0-0-0-0-|
D----2---2-2-2-2--2-2---2-2-2-2---3-3---3-3-3-3--0-0-0-0-0-0-0-|
A----0---0-0-0-0--2-2---2-2-2-2---3-3---3-3-3-3--2-2-2-2-2-2-2-|
E-----------------0-0---0-0-0-0---1-1---1-1-1-1--3-3-3-3-3-3-3-|
[ Tab from: http://www.guitartabs.cc/tabs/o/oasis/part_of_the_queue_tab.html ]
Bridge
Stand tall...
E--1-1-1-1-1-1-1--...--0-0-0-0-0-0-0--|
B--1-1-1-1-1-1-1--...--1-1-1-1-1-1-1--|
G--2-2-2-2-2-2-2--...--2-2-2-2-2-2-2--|
D--3-3-3-3-3-3-3--...--2-2-2-2-2-2-2--|
A--3-3-3-3-3-3-3--...--0-0-0-0-0-0-0--|
E--1-1-1-1-1-1-1--...-----------------|

Weird effects, then solo
E----------------------------------------------|
B-5^-------------------------------------------|
G-------4b5r4--2---2-2--2-2-2--2---2-2--2-2-2--|
D----------------------------------------------|
A----------------------------------------------|
E----------------------------------------------| x 2

Piano arranged for guitar:
   Am
E--0----0---------         --0---0--0---0--------|
B---------1-0-----         ----------------------|
G--------------2--         ----------------------|
D-----------------         ----------------------|
A-----------------         ----------------------|
E----------------- x lots then ------------------| carries on into words

Bridge
Stand tall...
E--1-1-1-1-1-1-1--...--0-0-0-0-0-0-0--|
B--1-1-1-1-1-1-1--...--1-1-1-1-1-1-1--|
G--2-2-2-2-2-2-2--...--2-2-2-2-2-2-2--|
D--3-3-3-3-3-3-3--...--2-2-2-2-2-2-2--|
A--3-3-3-3-3-3-3--...--0-0-0-0-0-0-0--|
E--1-1-1-1-1-1-1--...-----------------|

Back to piano bit:
Tryin, tryin...
   Am
E--0----0---------         --0---0--0---0--------|
B---------1-0-----         ----------------------|
G--------------2--         ----------------------|
D-----------------         ----------------------|
A-----------------         ----------------------|
E----------------- x lots then ------------------|

End on C

Tabbed by Bob Cheel (panelface_bob@hotmail.com )
Comments