Oasis - My Big Mouth Chords & Tabs

 

My Big Mouth Chords & Tabs

Oasis Chords & Tabs

Version: 1 Type: Tab 0 ratings
1 star 2 stars 3 stars 4 stars 5 stars
comments

My Big Mouth Tab

   
ate: Fri, 6 Feb 1998 17:45:24 -0500 (EST)
!From: Fred Lidskog 
Subject: TAB: My Big Mouth by Oasis

"My Big Mouth"
Performed by Oasis
>From the album "Be Here Now" on Sony/Creation Records
Music by: N. Gallagher
Lyrics by: N. Gallagher
(c)1997
-------------
Tabbed by Fred Lidskog 

Tab key:
========
h = hammer on
p = pull off
b = bend (7b8 means bend the string at the 7th fret to make approximately
   the note the string would make if played at the 8th fret with no bend)
r = release bend
s = slide (a quick slide, two notes sound like one)
\ = a slower slide (clearly sounds like two notes separated by a slide)
~ = hold note
! = where listed above tab shows where RIFF 1 starts over and is played
    again

Riff 1 (used in Verses and Chorus)
======
   
e---------------------------------------------------------------------------
B---------------------------------------------------------------------------
G-------7--5----------------------------------------------------------------
D--5\7--7--5--5-5--3-3-3-3--------------------------------------------------
A--5\7--5--3--5-5--3-3-3-3--------------------------------------------------
E--3\5--------3-3--0-1-0-1--------------------------------------------------

Riff 2 (used in Pre-Chorus)
======

Guitar #1:
   F5              G5      F5        E  G5
e-----------------------------------------------------------------------------
B-----------------------------------------------------------------------------
G----------------------------------------------------------------------1------
D--3--3--3--3---3--3--3--3---5---------5-----3--3--3--3----3--3--3--3--2---5--
A--3--3--3--3---3--3--3--3---5----3-2--5-----3--3--3--3----3--3--3--3--2---5--
E--0--1--1--1---0--1--1--1---3---------3--0--0--1--1--1----0--1--1--1--0---3--

Guitar #2 (at the same time):
 
   F5              G5      F5        E  G5
e---------3-----------3------------3-------3---------3-----------3-----------
B----------------------------------------------------------------------------
G---4--5-----5--4--5-----5----4--5---5-4-5---5-4--5-----5--4--5-----5--------
D----------------------------------------------------------------------------
A----------------------------------------------------------------------------
E----------------------------------------------------------------------------


Intro
=====

  A A      A   A
e------------------------------------------------------
B-10-------------8------------7------------5-----------
G-12b14~~~~~~r--10b12~~~~~~r--9b11~~~~~~r--7b9~~~~~~r--
D------------------------------------------------------
A------------------------------------------------------
E------------------------------------------------------

(Intro Solo played over Riff 1 chords)
  ! !
e---------------------------------------------------------------------------
B-5----5----5----5----------------------------------------------------------
G-7b9--7b9--7b9--7b9--7p5---5---------5h7-5---5---------------5h7-5---5-7---
D-------------------------7---7---5h7-------7---7--5--7---5h7-------7-------
A---------------------------------------------------------------------------
E---------------------------------------------------------------------------
  !       !
e--------------------------------------------------------------------------
B-5---5--5---5--5---5--5---------------------------------------------------
G-7b9-b9-7b9-b9-7b9-b9-7b9--b9r7--5---------5h7-5---5----------------5-----
D------------------------------------7--5h7-------7---7--5--7---5h7-----7--
A--------------------------------------------------------------------------
E--------------------------------------------------------------------------

e---------------------------------------------------------------------------
B---------------------------------------------------------------------------
G------5--------------------------------------------------------------------
D-5h7-----7~~~~~------------------------------------------------------------
A---------------------------------------------------------------------------
E---------------------------------------------------------------------------



e----------!-------------------------------!-----------------------------------
B-------------8-----8-----8-----8--------------8-----8-----8-----8-------------
G---------7b9---7b9---7b9---7b9----7b9r7---7b9---7b9---7b9---7b9---7b9r7--5----
D----------------------------------------------------------------------------7-
A------------------------------------------------------------------------------
E------------------------------------------------------------------------------


e---------------------------------------------------------------------------
B---------------8-----------------------------------------------------------
G----------7b9-----7--5---------5--5----------------------------------------
D------------------------7--5h7-------7--5--7-------------------------------
A---------------------------------------------------------------------------
E---------------------------------------------------------------------------


Solo
====
[THIS PART PLAYED OVER RIFF 2]
  F5    G5      F5          E5  G5 
e----------------------------------------------------------------------
B-10-------10-------10-------10-------10------10-----10-----9-----7----
guitarG-12b14----12b14----12b14----12b14----12b14---12b14--12b14-11b13--9b11-
#1D----------------------------------------------------------------------
A----------------------------------------------------------------------
E----------------------------------------------------------------------
[ Tab from: http://www.guitartabs.cc/tabs/o/oasis/my_big_mouth_tab.html ]
e-12-------12-------------------------12------12-------------
B-15b17----15b17----------------------15b17---15b17--end-----
guitarG----------------------------------------------------guitar--
#2D----------------------------------------------------#2------
A------------------------------------------------------------
E------------------------------------------------------------

              (Riff 1 starts) !
e--------------!----------------------------------------------------------
B-5------------7bbbb8.5---------------------------------------------------
G-7b9r7--5-----7bbbb8.5--7b8.5---7---7b8.5r7--5---------5h7-5---5---------
D-----------7------------------------------------7--5h7-------7---7--5--7-
A-------------------------------------------------------------------------
E-------------------------------------------------------------------------
 ! !
e---------------------------------------------------------------------------
B---------------------------------------------------------------------------
G-----5h7-5---5----------7bbbbbbbbb8.5---7---7b8.5r7--5---------5h7-5---5---
D-5h7-------7---7--5--7----------------------------------7--5h7-------7---7-
A---------------------------------------------------------------------------
E---------------------------------------------------------------------------
  ! !
e----------------------------------------8-------------------------------
B-------------------------7--------------7---------------7-------7-------
G-----------5----------------5--------5-----5--------------5b5.5---5b5.5-
D-5--7---7-----7---7-7-5--------7--7-----------7--7-7-5------------------
A------------------------------------------------------------------------
E------------------------------------------------------------------------

e------------------------------------------------------------------------
B-7------------------------------------------------------------5----7----
G---5b5.5-------------5h7-5---5--------------5--5b5.5----------7b9--9b11-
D----------7-5-7--5h7-------7---7--5--7--5h7----------7--5--7------------
A------------------------------------------------------------------------
E------------------------------------------------------------------------

e---------------
B--9-----10-----
G-11b13--12b14--
D---------------
A---------------
E---------------

Pre-Chorus
==========
(sung over Riff 2 and the below tabbed riffs)
e-----------------------------------------------------------------
B-10-------10-------10-------10-------10------10------9-----7-----
guitarG-12b14----12b14----12b14----12b14----12b14---12b14--11b13--9b11--
#1 D-----------------------------------------------------------------
A-----------------------------------------------------------------
E-----------------------------------------------------------------

e-12-------12-------12-------12-------12------12-------------
B-15b17----15b17----15b17----15b17----15b17---15b17--end-----
guitarG----------------------------------------------------guitar--
#2D----------------------------------------------------#2------
A------------------------------------------------------------
E------------------------------------------------------------

   This is my big...
e------------------
B--5---------------
guitarG--7b9--b9r7--5----
#1D----------------7-
A------------------
E------------------

Chorus (sung over Riff 1)
======
e---------------------------------------------------------------------------
B----------8b10r8-----5-----------------------------------------------------
G------------------7-----5s7--5--------5------------------------------------
D--------------------------------7---7---7----------------------------------
A---------------------------------------------------------------------------
E---------------------------------------------------------------------------

e----------------------------------------------------------------------------
B----------------------------------------------------------------------------
G---------5-----------5--------------5-----5--------5---5------5---7b9r7-5---
D------------7--7--7-----7--7--7--7-----7-----7---7---7---7--7---7---------7-
A----------------------------------------------------------------------------
E----------------------------------------------------------------------------

e----------------------------------------------------------------------------
B------------------------------7---------------------------------------------
G-------5---------5---5--------7--5---5---5-----5------5---------5----7--5---
D-7-7-7---7-7-7-7---7---7-7-7-------7---7---7------5h7----7--5h7----7------7-
A----------------------------------------------------------------------------
E----------------------------------------------------------------------------

e-------------------------------------------
B----------------------8----8---------------
G-----5---------5------7b9--7b9--7p5----5---
D-5h7----7--5h7----7------------------7---7-
A-------------------------------------------
E-------------------------------------------

e----------------------------------------------------------------
guitarB----------------------------------------------------------------
#1G---5-------5-------5-------5----------------------5---5b5.5-----
cont..D-7---7---7---7---7---7---7---7----------------------7-------7---
A----------------------------------------------------------------
E----------------------------------------------------------------

e----------------------------------------------------------------
guitarB----------------------------------------------------------------
#2G-7b9--7b9--7b9--7b9--7b9--7--5-------5--4-----------------------
entersD-------------------------------7-5h7-------5--5-----------------
A--------------------------------------------------5b6r5--3------
E------------------------------------------------------------5---

Questions, comments, corrections, requests to swede@email.unc.edu
Comments