Oasis - Morning Glory Chords & Tabs

 

Morning Glory Chords & Tabs

Oasis Chords & Tabs

Version: 2 Type: Tab 0 ratings
1 star 2 stars 3 stars 4 stars 5 stars
comments

Morning Glory Tab

   
e-------------------------------------------------12--------------------------
B-12b13p12--------------------------------------------------------------------
G----------14-12-14-12------------12-14-12--14b16----14-12-14-12-14-12--------
D----------------------14---12-14---------------------------------------14-12-
A-----------------------------------------------------------------------------
E-----------------------------------------------------------------------------
		Em                     D                    Em
e-----------------------------------------------------------------12-12--
B--------------12h13p12--------------------------------------------------
G----12-----12----------14-12-14-12-14-12---------12-14-12--14b16--------
D-14-----14---------------------------------12-14------------------------
A------------------------------------------------------------------------
E------------------------------------------------------------------------
 
                                        D
e--------12-12-------12-12-------12-12---------12-12--
B-----------------------------------------------------
G--14b16-------14b16-------14b16--------14b16---------
D-----------------------------------------------------
A-----------------------------------------------------
E-----------------------------------------------------
[ Tab from: http://www.guitartabs.cc/tabs/o/oasis/morning_glory_tab_ver_2.html ]
Comments