Oasis - Morning Glory Chords & Tabs

 

Morning Glory Chords & Tabs

Oasis Chords & Tabs

Version: 1 Type: Tab 0 ratings
1 star 2 stars 3 stars 4 stars 5 stars
comments

Morning Glory Tab

   
Morning Glory
Oasis


Chords used:

Em	(022000)
D	(xx0232)
D5	(xx023x)
A7sus4	(x02030)
Cadd9	(x32030)
Dsus2	(xx0230)
B	(x24442)

Tab for Intro:

Here's that little part before the chords start:

b=bend (3b5 means bend string at 3rd fret to make note of 5th fret)

e-------------
B--3-3-3-3b5-- (just repeat this a bunch of times)
G-------------

Okay, now here the tab for the little riff that is played throughout all
the verses and the part of the chorus when the chords change from "Em" to
"D".
Here's how the official book has it tabbed:

   Em             D5   Em             D5
e----------------------------------------
B-----------------3-------------------3--
G-----------------2-------------------2--
D-----2-----------0-------2-----------0--
A-----2-----0--2----------2-----0--2-----
E--0-----3-------------0-----3-----------

But if you listen to the song (even though it's tough to hear it through
all that other noise) I think the main riff sounds more like this:

   Em		  D5   Em	      D5
e----------------------------------------
B-----------------3-------------------3--
G-----------------2-------------------2--
D-----2-----------0-------2-----------0--
A-----2--------0----------2--------0-----
E--0-----0--3----------0-----0--3--------

Anyways, I could be wrong, but try it out and let me know what you think!
[ Tab from: http://www.guitartabs.cc/tabs/o/oasis/morning_glory_tab.html ]
Verse 1
-------
[NOTE: You can play just the chords listed below along with the song, or
you can play them with the above riff]

Em		    D
All your dreams are made
	    Em				  D
When you're chained to the mirror and the razor blade
  Em		     D                  A7sus4    Cadd9
Today's the day that all the world will see
 Em		   D
Another sunny afternoon
Em   			   D
Walking to the sound of my favorite tune
  Em			     D                A7sus4   Cadd9
Tomorrow never knows what it doesn't know too soon

Pre-Chorus
----------
Dsus2		      Cadd9
Need a little time to wake up
Dsus2		      Cadd9
Need a little time to wake up wake up
Dsus2		      Cadd9
Need a little time to wake up
D		
Need a little time to rest your mind
    B
You know you should so I guess you might as 

Chorus
------
Em  (with main riff)  D5
well
A7sus4		 Cadd9
What's the story morning glory
Em	D5
Well
      A7sus4		    Cadd9
(you) need a little time to wake up wake up
Em	D5
Well
A7sus4		 Cadd9
What's the story morning glory
Em	D5
Well
A7sus4		      Cadd9
need a little time to wake up wake up


back to this little riff:
e--------------------------
B--3-3-3-3b5----3-3-3-3b5--
G--------------------------

[Verse]

[Pre-chorus]

[Chorus]


Comments