Oasis - Live Forever Chords & Tabs

 

Live Forever Chords & Tabs

Oasis Chords & Tabs

Version: 8 Type: Tab 0 ratings
1 star 2 stars 3 stars 4 stars 5 stars
comments

Live Forever Tab

   
OASIS - Live Forever
Definitely Maybe, 1994

Tabbed by: Robert Murphy
email: trebor69a@aol.com

Tab key:

b = bend
r = release bend
h = hammer-on
p = pull-off
^ = trill (make the note 'vibrate')
~ = vibrato
/ = slide up
\ = slide down

Chords used:

G	(320033)
D	(xx0232)
Am7	(x02010)
C	(x32010)
Em7	(022033)
Fmaj7	(x33210)


Verse 1
-------
G	       D
Maybe, I don't really wanna know
	 Am7
How your garden grows
C	     D
I just wanna fly
G		D
Lately, did you ever feel the pain
       Am7
in the morning rain
      C		       D
as it soaks you to the bone


Chorus
------
Em7		     D
  Maybe I just wanna fly
			   Am7
Wanna live I don't wanna die
		   C
Maybe I just wanna breathe
      D		      Em
Maybe I just don't believe
			 D
Maybe you're the same as me
			    Am7
We see things they'll never see
			    Fmaj7
You and I are gonna live forever

e---------------------------------3-------------3------|
B-------------------------------1---1---------1---1----|
G-----------------------------0-------0-----0-------0--|
D---------------------------3-------------3------------|
A------------------------------------------------------|
E------------------------------------------------------|

Verse 2
-------
Chords as Verse 1. Noel plays these lead parts. Listen to song 4 timing.
    G                      D
e--------------------    ----------------|
B-----------13-12----    ---------8-7----|
G--------12-12-12----    -------7-7-7----|
D--12h14-------------    ---7h9----------|
A--------------------    ----------------|
E--------------------    ----------------|

Chorus 2
--------

Guitar solo
-----------
Chords as Verse 1 and Chorus 1
[ Tab from: http://www.guitartabs.cc/tabs/o/oasis/live_forever_tab_ver_8.html ]
          G		    D			   Am7        C        D
e----------------------------------------------------------------------------|
B----------------------------------------------------------------------------|
G--------12--14b16-14-12----12h14---14b16r14-12----12h14------12----12-------|
D--12h14-----------------14---------------------14-------14---12h14-12-12----|
A----------------------------------------------------------------------12h14-|
E----------------------------------------------------------------------------|
       G	    D                     Am7       C	     D
e----------------------------------------------------------------------------|
B----------------------------------------------------------------------------|
G-------------------12h14--14b16r14-12----12h14-----12----12-12--------------|
D--12------/12-12h14--------------------14-------14-12h14-14-12--------------|
A--12\10---------------------------------------------------------------------|
E----------------------------------------------------------------------------|
     Em       D						   Am7
e--7s12^^^^^^-12-------------------------------------------------------------|
B----------------15-12-15-12----12-------------------------------------------|
G----------------------------14----14-12-14-12----12-14-12-14b16-14-12h14-12-|
D----------------------------------------------14----------------------------|
A----------------------------------------------------------------------------|
E----------------------------------------------------------------------------|
 		     C                    D		Em      D
e----------------------------------------------------12-12^^^^^-12-----------|
B----------------------------------------------12-15---------------15-12-15--|
G-----------------12-14b16-14b16-14p12----12---------------------------------|
D--14-------12h14----------------------14------------------------------------|
A-----12h14------------------------------------------------------------------|
E----------------------------------------------------------------------------|
				   Am7 				     Fmaj7
e---------------------------------------------------------------------------|
B-12----12------------------------------------------------------------------|
G----14----14-12-14-12----12-14-12-14b16-14-12h14-12----------------12-12---|
D----------------------14----------------------------14-------12h14---------|
A-------------------------------------------------------12h14---------------|
E---------------------------------------------------------------------------|

e---------------------------------------------------------------------------|
B---------------------------------------------------------------------------|
G-------------12-12--------------12-14b16-14b16-14p12----12-----------------|
D-------12h14--------------12h14----------------------14--------------------|
A-12h14--------------12h14--------------------------------------------------|
E---------------------------------------------------------------------------|

Verse 3. As Verse 1. Noel holds 12th fret 3rd string and lets it feedback.

Chorus 3. Noel plays these lead bits over the chords. Again you should listen to the 
to get the timing correct.

    Em7          D             Em7             D             Am7
e-----------------------|----------------------------------------------|
B-----------------------|----------------------------------------------|
G-----------------------|-------12--------------14------------12-------|
D--12h14--------12h14---|-----------14--------------14------------14---|
A-----------------------|----------------------------------------------|
E-----------------------|----------------------------------------------|

Am7           Fsus2
Gonna live forever.

e----------------------------|
B----------------------------|             PLAY 6 TIMES
G----------------------------|
D----------------------------|
A-------------------3-2-0----|
E----------------------------|

Guitar solo
-----------

e------------------------------------------------------------------------|
B------------------------------------------------------------------------|
G--7b9r7-5----------------------5-5-------5--------------7b9r7-5---5-----|
D----------7--------------5h7-7-----7-5h7---7\-------------------7-------|
A---------------3-2-0---------------------------3-2-0--------------------|
E------------------------------------------------------------------------|

---------------------------------------------------------------------------|
---------------------------------------------------------------------------|
--7b9r7-5---5---5----------------7b9r7-5---5---7b9r7-5---5---5-------------|
----------7---7---7\---------------------7-------------7---7---7\----------|
-----------------------3-2-0----------------------------------------3-2-0--|
---------------------------------------------------------------------------|

---------------------------------------------------------------------|
--5-5x5x5--------5-5x5x5------------------x5x5-------5-5x5x5---------|
--5-5x5x5--------5-5x5x5----------------5-x5x5-------5-5x5x5---------|
-----------5h7------------5h7-------5h7--------5h7------------5h7----|
--------------------------------5h7----------------------------------|
---------------------------------------------------------------------|

----------------------------------------------------0-------|
--5-5x5x5--------5-5x5x5------------------------------0-1---|
--5-5x5x5--------5-5x5x5------------------------------------|
-----------5h7------------5h7----7~-------------------------|
------------------------------------------------------------|
------------------------------------------------------------|
Comments