Oasis - Live Forever Chords & Tabs

 

Live Forever Chords & Tabs

Oasis Chords & Tabs

Version: 7 Type: Tab 0 ratings
1 star 2 stars 3 stars 4 stars 5 stars
comments

Live Forever Tab

   
e----------------------------------------------------------------------------|
B----------------------------------------------------------------------------|
G--------12--14b16-14-12----12h14---14b16r14-12----12h14------12----12-------|
D--12h14-----------------14---------------------14-------14---12h14-12-12----|
A----------------------------------------------------------------------12h14-|
E----------------------------------------------------------------------------|
       G	    D                     Am7       C	     D
e----------------------------------------------------------------------------|
B------0---------------------------------------------------------------------|
G------0------------12h14--14b16r14-12----12h14-----12----12-----------------|
D--12--0--s12-12h14--------------------14-------14--12h14-12-12----12--------|
A--12--------------------------------------------------------12h14-12--------|
E----------------------------------------------------------------------------|
     Em       D						   Am7
e--7s12^^^^^^-12-------------------------------------------------------------|
B----------------15-12-15-12----12-------------------------------------------|
G----------------------------14----14-12-14-12----12-14-12-14b16-14-12h14-12-|
D----------------------------------------------14----------------------------|
A----------------------------------------------------------------------------|
E----------------------------------------------------------------------------|
 		     C                    D		Em      D
e----------------------------------------------------12-12^^^^^-12-----------|
B---------------------------------------------s12-15---------------15-12-15--|
G-----------------12-14b16-14b16-14p12----12---------------------------------|
D--14-------12h14----------------------14------------------------------------|
A-----12h14------------------------------------------------------------------|
E----------------------------------------------------------------------------|
				   Am7 				     Fmaj7
e---------------------------------------------------------------------------|
B-12----12------------------------------------------------------------------|
G----14----14-12-14-12----12-14-12-14b16-14-12h14-12----------------12-12---|
D----------------------14----------------------------14-------12h14---------|
A-------------------------------------------------------12h14---------------|
E---------------------------------------------------------------------------|

e---------------------------------------------------------------------------|
B---------------------------------------------------------------------------|
G-------------12-12--------------12-14b16-14b16-14p12----12-----------------|
D-------12h14--------------12h14----------------------14--------------------|
A-12h14--------------12h14--------------------------------------------------|
E---------------------------------------------------------------------------|
[ Tab from: http://www.guitartabs.cc/tabs/o/oasis/live_forever_tab_ver_7.html ]
Comments