Oasis - Live Forever Chords & Tabs

 

Live Forever Chords & Tabs

Oasis Chords & Tabs

Version: 4 Type: Tab 0 ratings
1 star 2 stars 3 stars 4 stars 5 stars
comments

Live Forever Tab

   
LIVE FOREVER

OASIS (WRITTEN BY NOEL GALLAGHER)

IF YOU DON?T KNOW HOW THE SONG GOES I STRONGLY RECOMMEND YOU LISTEN TO
THE SINGLE OR SOME VERSION OF THE SONG.
THE CHORDS ARE ABSOLUTELY CORRECT BUT THE SOLO IS MY OWN VERSION.

(STANDARD MUSICAL FORM) TEMPO:95 or 90

CHORDS:
      EADGBE
    G:320033
    D:000232
  Am7:002010
    C:032010
  Em7:022033
Fsus2:003013

VERSE 1:

G (4 beats)   D (4)
MAYBE I DON?T REALLY WANNA KNOW
         Am7 (4)            C (2)
HOW YOUR GARDEN GROWS CAUSE I
           D (2)
JUST WANNA FLY.
G (4)          D (4)
LATELY DID YOU EVER FEEL THE PAIN
       Am7 (4)            C (2)
IN THE MORNING RAIN AS IT SOAKS
           D (2)
YOU TO THE BONE.

Chorus 1:
Em7 (4)            D (4)
MAYBE I JUST WANNA FLY WANNA LIVE
            Am7 (4)
DON?T WANNA DIE MAYBE I JUST WANNA
C (2)        D (2)          Em7 (4)
BREATH MAYBE I JUST DON?T BELIEVE
                         D (4)
MAYBE YOUR?E THE SAME AS ME WE?LL
                         Am7 (4)
SEE THINGS THEY?LL NEVER SEE
                            Fsus2 (8)
YOU AND I ARE GONNA LIVE FOREVER

Verse 2:

SAME CHORDS AND WORDS AS VERSE 1

Chorus 2:
Em7 (4)            D (4)
MAYBE I WILL NEVER BE ALL THE THINGS
                 Am7 (4)
THAT I?D LIKE TO BE NOW IS NOT THE
        C (2)         D (2)
TIME TO CRY NOW?S THE TIME TO FIND
    Em7 (4)
OUT WHY. I THINK YOUR?E THE SAME AS
D (4)                             Am7 (4)
ME WE?LL SEE THINGS THEY?LL NEVER SEE
                            Fsus2 (8)
YOU AND I ARE GONNA LIVE FOREVER

SOLO

h=hammer
s=slide
b=bend
v=start vibrate
^=indicates to continue vibrating (when symbols stops so does your finger)

  G (4)                D (4)             Am7 (4)     C (2) D (2)       G (4)
E-------------------------------------------------------------------------|
A----------------------------------------------------------14----14s12-10-|
D-12h14-------------------------------14-------14-14-14-12----12----------|
G-------12-14b16-12-14-12h14-14b16-12----12h14----------------------------|
B-------------------------------------------------------------------------|
E-------------------------------------------------------------------------|

        D (4)             Am7 (4)     C (2) D (2)
E-------------------------------------------------|
A-------------------------------------------------|
D-12h14----------------14-------14-14-14-12-14-12-|
G-------12h14-14b16-12----12h14-------------------|
B-------------------------------------------------|
E-------------------------------------------------|
[ Tab from: http://www.guitartabs.cc/tabs/o/oasis/live_forever_tab_ver_4.html ]
    Em7 (4)               D (4)                                     Am7 (4)
E-------------------------------------------------------------------------|
A-------------------------------------------------------------------------|
D-------------------------------------------------------14?---------------|
G-------------------------------------14----14-12h14-12----12-14-12-14b16-|
B-------------------------15-12h15-12----12-------------------------------|
E-7s12-v12-12-12-12-12-12-------------------------------------------------|
    ^^^^^^^^^^^^^^^^^^^^^

                       C (2)          D (2)          Em7 (4)
E----------------------------------------------------------------------|
A----------------------------------------------------------------------|
D----------14----------------------------------------------------------|
G-12h14-12----12-14-12-14b16-16-16-12-14-------------------------------|
B----------------------------------------12-15-12h15-------------------|
E----------------------------------------------------12-12-12-12-12-12-|
                                                     ^^^^^^^^^^^^^^^^^


  D (4)                                     Am7 (4)
E-------------------------------------------------------------|
A-------------------------------------------------------------|
D-------------------------------14?------------------------14-|
G-------------14----14-12h14-12----12-14-12-14b16-12h14-12----|
B-15-12h15-12----12-------------------------------------------|
E-------------------------------------------------------------|
              Fsus2 (8)
E-------------------------------------------------------------|
A-12h14----------12h14----------12h14-------------------------|
D-------12h14----------12h14----------12h14-------------------|
G-------------12-------------12-------------12-14b16-16-12-s0-|
B-------------------------------------------------------------|
E-------------------------------------------------------------|

VERSE 3:

SAME CHORDS AS VERSE 1

CHORUS 3:

SAME CHORDS AND WORDS AS CHORUS 1 EXCEPT Fsus2 CHORD LASTS ONLY 4 BEATS

OUTRO:

Am7 (4)    Fsus2 (4) 6
GONNA LIVE FOREVER

OUTRO SOLO:
 Am7 (4)Fsus2 (4) Am7 (4)         Fsus2 (4) Am7 (4)                       Fsus2 (4)
E---------------------------------------------------------------------------|
A-------------3-2-0-------------------0-3-2-0-------------------------------|
D---------7s4-------5h7---7-5-5h7-7-0---------------------------------------|
G-7b9r7-5--s2-----------5---------------------7b9r7-5h7-5-7b9r7-5h7-5-7-5---|
B-------------------------------------------------------------------------7-|
E---------------------------------------------------------------------------|
        Am7 (4)                       Fsus2(4)Am7 (4)
E-----------------------------------------------|
A-0-3-2-0-------------------------------0-3-2-0-|
D-----------------------------------------------|
G---------7b9r7-5h7-5-7b9r7-5h7-5-7-5-----------|
B-------------------------------------7---------|
E-----------------------------------------------|

THIS ISN?T ALL OF THE SOLO. THIS IS THE START AND IS CORRECT BUT I
HAVE NO IDEA HOW IT GOES UP TO THE END.
WHEN I PLAY I IMPROVISE BY HAMMERING AND OCCASIONALY BENDING NOTES.
YOU SHOULD ONLY USE THESE NOTES THOUGH:

E-----
A-5---
D-5-7-
G-5-7-
b-5-7-
E-----

AFTER 4 BEATS IN IMPROVISING YOU SHOULD PLAY:

E---------|
A-0-3-2-0-|
D---------|
G---------|
B---------|
E---------|

THE OUTRO FROM THE START OF THE SOLO LASTS 16 BARS WITH 4 BEATS IN
A BAR (IT?S 4 BEATS IN A BAR FOR THE WHOLE SONG ASWELL).

Cheers.
Any comments questions etc e-mail me at oasis_fan_4ever@hotmail.com
Comments