Oasis - Live Forever Chords & Tabs

 

Live Forever Chords & Tabs

Oasis Chords & Tabs

Version: 1 Type: Tab 2 ratings
1 star 2 stars 3 stars 4 stars 5 stars
comments

Live Forever Tab

   
#----------------------------------PLEASE NOTE--------------------------------#
#This file is the author's own work and represents their interpretation of the#
#song. You may only use this file for private study, scholarship, or research.#
#-----------------------------------------------------------------------------#

Date: August 2nd 2004 3:29 p.m. 
Song: Live Forever
Artist: Oasis
Album: Definitly Maybe
Year: 1994
Tabbed by: Mauricio Galeano (xxxxxxx@xxxxxx.xxx.xx)

Verse:
G-D
Am7-C

CHORUS:

Em7-D
Am7
C-D
Em7-D
Am7
F


SOLO

e-----------------------------------------------------------------------------------------------
B-----------------------------------------------------------------------------------------------
G------------12-14b16-12-14-12h14-14b16-12------12h14-------------------------------------------
D----12h14----------------------------------14---------14-14-14-12-----12-----------------------
A------------------------------------------------------------------14-----14s12--10-------------
E-----------------------------------------------------------------------------------------------

e---------------------------------------------------------------------------------
B---------------------------------------------------------------------------------
G---------12h14---14b16--12-----12h14---------------------------------------------
D--12h14--------------------14----------14-14-14-12-14-12-------------------------
A---------------------------------------------------------------------------------
E---------------------------------------------------------------------------------
[ Tab from: http://www.guitartabs.cc/tabs/o/oasis/live_forever_tab.html ]
e-7s12-v12-12-12-12-12-12--------------------------------------------------------
B-------------------------15-12h15-12----12--------------------------------------
G-------------------------------------14----14-12h14-12----12-14-12-14b16--------
D-------------------------------------------------------14-----------------------
A--------------------------------------------------------------------------------
E--------------------------------------------------------------------------------


e-----------------------------------------------------12-12-12-12-12-12---
B-----------------------------------------12-15-12h15---------------------
G--12h14-12----12-14-12-14b16-16-16-12-14---------------------------------
D-----------14------------------------------------------------------------
A-------------------------------------------------------------------------
E-------------------------------------------------------------------------

e-----------------------------------------------------------------
B---15-12h15-12----12---------------------------------------------
G---------------14----14-12h14--12------12-14-12-14b16-12h14-12---
D-----------------------------------14--------------------------14
A-----------------------------------------------------------------
E-----------------------------------------------------------------


e------------------------------------------------------------------
B------------------------------------------------------------------
G----------------12-------------12---------------12-14b16-16-12-s0-
D---------12h14-----------12h14-----------12h14--------------------
A---12h14-----------12h14-----------12h14--------------------------
E------------------------------------------------------------------


OUTRO SOLO:

e----------------------------------------------------------------------------------
B-----------7s4--------------------------------------------------------------------
G--7b9r7--5--s2------------5----------------------7b9r7-5h7-5-7b9r7-5h7-5-7-5------
D----------------------5h7----7-5-5h7-7-0-------------------------------------7----
A---------------3-2-0---------------------0-3-2-0----------------------------------
E----------------------------------------------------------------------------------


WELL THAT'S ALL


Comments