Oasis - Live Forever Chords & Tabs

 

Live Forever Chords & Tabs

Oasis Chords & Tabs

Version: 2 Type: Bass Tab 0 ratings
1 star 2 stars 3 stars 4 stars 5 stars
comments

Live Forever Bass Tab

   
Oasis.
Live Forever. 
Definately Maybe, Track 3
Written By: Noel Gallagher 
Tabbed By: Chris Calland & Mark Smith

Intro:

G|----------------|----------------|----------------|----------------||
D|----------------|----------------|----------------|----------------||
A|---DRUM-LOOP----|----DRUM-LOOP---|---DRUM-LOOP----|----DRUM-LOOP---||
E|----------------|----------------|----------------|----------------||

Verse:
 (G)  (D)   (Am7)    (C)      (D)
G|----------------|----------------|----------------|--------|--------||
D|----------------|----------------|----------------|--------|--------||
A|----------------|----------------|----------------|--------|--------||
E|----------------|----------------|----------------|--------|--------||

 (G)  (D)   (Am7)    (C)     (D)
G|----------------|----------------|----------------|--------|--------||
D|----------------|----------------|----------------|-7p5----|--------||
A|----------------|----------------|----------------|-----7s5|7-------||
E|----------------|----------------|----------------|--------|----7s5-||

Chorus:
 (Em7)  (D)   (Am7)    (C)      (D)
G|----------------|----------------|----------------|--------|--------||
D|----------------|----------------|----------------|--------|--------||
A|----------------|--5--5---5-5-5--|--0--0---0-0-0--|---3-3--|---5-5-5||
E|--0--0---0-0-0--|----------------|----------------|--------|--------||

 (Em7)  (D)   (Am7)    (F)
G|----------------|----------------|----------------|--------|--------||
D|----------------|----------------|----------------|--------|--------||
A|----------------|--5--5---5-5-5--|--0--0---0-0-0--|--------|--------||
E|--0--0---0-0-0--|----------------|----------------|11101110|11101110||

Verse:
 (G)  (D)   (Am7)    (C)      (D)
G|----------------|----------------|----------------|--------|--------||
D|----------------|----------------|----------------|--------|--------||
A|----------------|--5--5---5-5-5--|--0--0---0-0-0--|---3-3--|---5-5-5||
E|--3--3---3-3-3--|----------------|----------------|--------|--------||

 (G)  (D)   (Am7)    (C)      (D)
G|----------------|----------------|----------------|--------|--------||
D|----------------|----------------|----------------|--------|--------||
A|----------------|--5--5---5-5-5--|--0--0---0-0-0--|---3-3--|---5-5-5||
E|--3--3---3-3-3--|----------------|----------------|--------|--------||

Chorus:
 (Em7)  (D)   (Am7)    (C)      (D)
G|----------------|----------------|----------------|--------|--------||
D|----------------|----------------|----------------|--------|--------||
A|----------------|--5--5---5-5-5--|--0--0---0-0-0--|---3-3--|---5-5-5||
E|--0--0---0-0-0--|----------------|----------------|--------|--------||
[ Tab from: http://www.guitartabs.cc/tabs/o/oasis/live_forever_btab_ver_2.html ]
 (Em7)  (D)   (Am7)    (C)      (D)
G|----------------|----------------|----------------|--------|--------||
D|----------------|----------------|----------------|--------|--------||
A|----------------|--5--5---5-5-5--|--0--0---0-0-0--|--------|--------||
E|--0--0---0-0-0--|----------------|----------------|11101110|11101110||

Solo:
 (G)  (D)   (Am7)    (C)      (D)
G|----------------|----------------|----------------|--------|--------||
D|----------------|----------------|----------------|--------|--------||
A|----------------|--5--5---5-5-5--|--0--0---0-0-0--|---3-3--|---5-5-5||
E|--3--3---3-3-3--|----------------|----------------|--------|--------||

 (G)  (D)   (Am7)    (C)      (D)
G|----------------|----------------|----------------|--------|--------||
D|----------------|----------------|----------------|--------|--------||
A|----------------|--5--5---5-5-5--|--0--0---0-0-0--|---3-3--|---5-5-5||
E|--3--3---3-3-3--|----------------|----------------|--------|--------||

 (Em7)  (D)   (Am7)    (C)      (D)
G|----------------|----------------|----------------|--------|--------||
D|----------------|----------------|----------------|--------|--------||
A|----------------|--5--5---5-5-5--|--0--0---0-0-0--|---3-3--|---5-5-5||
E|--0--0---0-0-0--|----------------|----------------|--------|--------||

 (Em7)  (D)   (Am7)    (C)      (D)
G|----------------|----------------|----------------|--------|--------||
D|----------------|----------------|----------------|--------|--------||
A|----------------|--5--5---5-5-5--|--0--0---0-0-0--|--------|--------||
E|--0--0---0-0-0--|----------------|----------------|11101110|11101110||


Verse:

 (G)  (D)   (Am7)    (C)      (D)
G|----------------|----------------|----------------|--------|--------||
D|----------------|----------------|----------------|-7p5----|--------||
A|----------------|----------------|----------------|-----7s5|7-------||
E|----------------|----------------|----------------|--------|----7s5-||

 (Em7)  (D)   (Am7)    (C)      (D)
G|----------------|----------------|----------------|--------|--------||
D|----------------|----------------|----------------|--------|--------||
A|----------------|--5--5---5-5-5--|--0--0---0-0-0--|---3-3--|---5-5-5||
E|--3--3---3-3-3--|----------------|----------------|--------|--------||

Chorus:
 (Em7)  (D)   (Am7)    (C)      (D)
G|----------------|----------------|----------------|--------|--------||
D|----------------|----------------|----------------|--------|--------||
A|----------------|--5--5---5-5-5--|--0--0---0-0-0--|---3-3--|---5-5-5||
E|--0--0---0-0-0--|----------------|----------------|--------|--------||

 (Em7)  (D)   (Am7)    (F
G|----------------|----------------|----------------|-------------||
D|----------------|----------------|----------------|-------------||
A|----------------|--5--5---5-5-5--|--0--0---0-0-0--|-------------||
E|--0--0---0-0-0--|----------------|----------------|1110-1110--3-||

Outro:
 (Am7)  (F)            
G|----------------|-------------||
D|----------------|-------------||X
A|----------------|-------------||13
E|s-5--5---5-5-5s3|s1110-1110-3-||

G|----------------|----------------||
D|----------------|----------------||
A|----------------|----------------||
E|--5---hold------|---5----s----17-||
 

These Tabs Are 99% Correct, 
Comments