Oasis - Little By Little Chords & Tabs

 

Little By Little Chords & Tabs

Oasis Chords & Tabs

Version: 3 Type: Tab

Little By Little Tab

   
Little by little -Heathen Chemistry-oasis
Written by: Noel Gallagher
This is a great song to play along to and one of my favorites.


C:332010
G:320033
Em:022000
A:x02220
D:xx0232
D/F#:200232


intro:

C,G,Em..... , A....., Em....., A.....


Em                        A
We the people fight for our existence
Em                          A
We dont claim to be perfect but were free
Em                                 A
We dream our dreams alone with no resistance
Em                              A
Fading like the stars we used to be

Bridge:
                  D
You know i didnt mean
           G    D/F# Em
What i just said
                                            A
But meh god woke up on the wrong side of his bed
                       G
And it just dont matter now

Chorus:
        D                  A                   Em         D/F#      G
Cause little by little, we gave you everything you ever dreamed of..
 D                    A              Em          D/F#          G
Little by little , the wheels of your life are slowly falling off...
  D                  A                 Em          D/F#     G
little by little , you have to give it all in all your life,
            D            C      G        A
And all the time i ask my self why, you really here

Verse:
 Em                     A
True perfection has to be imperfect,
  Em                                      A
I know that, that sounds foolish but its true
  Em                                   A
The days have come and now it time to accept
      Em                            A
The life inside your head we give to you

Bridge:
                  D
You Know I didnt mean
             G  D/F# Em
What i just said
                                      A
But meh woke up on the wrong side of his bed
                         G
But it just dont matter now

Chorus:
      D                  A                   Em         D/F#      G
Cause little by little, we gave you everything you ever dreamed of..
 D                    A              Em          D/F#          G
Little by little , the wheels of your life are slowly falling off...
  D                  A                 Em          D/F#     G
little by little , you have to give it all in all your life,
            D            C      G        A
And all the time i ask my self why, you really here


solo:
[ Tab from: http://www.guitartabs.cc/tabs/o/oasis/little_by_little_tab_ver_3.html ]
    A                      G  D  A               G D
E-------------------------------------------------------------------------|
B-------------------------------------------------------------------------|
G----------6-7h9r7-6b------------------6-7h9r7-6b-------------------------|
D---7-7-7--------------7---5----7-7-7--------------7---5------------------|
A----------------------7---5-----------------------7---5------------------|
e-------------------------------------------------------------------------|

  D                                A   G  D
E-------------------------------------------------------------------------|
B-------------------------------------------------------------------------|
G-----------------11-12h14r12-11b---------------------11-12h14r12-11b-----|
D--7/12--12-12-12-----------------12---10----12-12-12-----------------12--|
A---------------------------------12---10-----------------------------12--|
e-------------------------------------------------------------------------|

     A
E-------------------------------------------------------------------------|
B-------------------------------------------------------------------------|
G-----------14~~~~--16b---------------------------------------------------|
D--10--12-----------------------------------------------------------------|
A--10---------------------------------------------------------------------|
e-------------------------------------------------------------------------|

Chorus:
      D                  A                   Em         D/F#      G
Cause little by little, we gave you everything you ever dreamed of..
 D                    A              Em          D/F#          G
Little by little , the wheels of your life are slowly falling off...
  D                  A                 Em          D/F#     G
little by little , you have to give it all in all your life,
            D            A                     Em
And all the time i ask my self why, you really here

                    G    D   A
Why am i really here ?
                     G D   A   G   D
Why am i really here ?

Outro:

E-------------------------------------------------------------|
B-----------------------------------15b-15b-15b---------------|
G--11h12-14----11h12-14---11h12-14----------------------------|
D-------------------------------------------------------------|
A-------------------------------------------------------------|   X3
e-------------------------------------------------------------|

then

E--------------------------------------------------------------------------|
B------------------------------15-17h19-15b-------------------15-----------|
G--11h12-14-11h12-14-11h12-14----------------14/12~~~~-12h14---------------|
D--------------------------------------------------------------------------|
A--------------------------------------------------------------------------|
e--------------------------------------------------------------------------|


The End

Tabbed by Josh From stoke C'on