Oasis - Importance Of Being Idle Chords & Tabs

 

Importance Of Being Idle Chords & Tabs

Oasis Chords & Tabs

Version: 3 Type: Tab 0 ratings
1 star 2 stars 3 stars 4 stars 5 stars
comments

Importance Of Being Idle Tab

   
----------------------------------------------------------------------------
			     IMPORTANCE OF BEING IDLE - OASIS
----------------------------------------------------------------------------
Tabbed by:Natalie Innes
Email:natalieinnes874@hotmail.com

Tuning:Standard (EADGBe)

This is the new single off the cracking new album Don't Beleive the Truth. I'm pretty
sure its right but any comments/ corrections are welcome. ENJOY!

Chords used:
Am  002210
E   022100
F   133211
C   032010
B   X24442
Dm  XX0231
G   320033

Intro:
Am    E Am     E Am    E Am E Am
Am

Verse 1:
  Am                   F
I sold my soul for the second time
        C          B   E
Cos the man, don't pay me
  Am                      F
I begged my landlord for some more time
         C                 B   E
He said "Son the bills are waiting"
    Am                        F
My best friend called me the other night
         C        B  E
He said "man-you crazy"
   Am                    F
My girlfriend told me to get a life
         C       B E
She say "Boy-you lazy"

Chorus:
Dm           Am
But I don't mind
    Dm                              Am
As long as theres a bed beneath the stars that shine
Dm                    F
I'll be fine, If you give me a minute

A man's got a limit
   G                      E               **
I can't get a life if my hearts not in it

Guitar 2 plays this in background at **
e|--0-----------------------------------------------------------------------|
B|----3-1-0-----------------------------------------------------------------|
G|----------2-0-------------------------------------------------------------|
D|--------------2-0---------------------------------------------------------|
A|------------------0-------------------------------------------------------|
E|--------------------------------------------------------------------------|

Guitar solo over verse chords
Part 1- Guitar 1

e|---------------8-7-5---------------------------------8-7-5--------------|
B|---------------------8-5---8-10-8--4-5---------------------8-5--8-10-8--|
G|--7-9-7-5---------------------------------7-9-7-5-----------------------|
D|----------7---------------------------------------7---------------------|
A|------------------------------------------------------------------------|
E|------------------------------------------------------------------------|

e|------------------------------------------------------------------------|
B|--4-5-------------------------------------------------------------------|
G|------------------------------------------------------------------------|
D|------------------------------------------------------------------------|
A|------------------------------------------------------------------------|
E|------------------------------------------------------------------------|
[ Tab from: http://www.guitartabs.cc/tabs/o/oasis/importance_of_being_idle_tab_ver_3.html ]
Part 2 guitar 1 (guitar 2 plays part 1 underneath)
       bu       bu                  bu        bu
e|--(10)-12--(10)-12--10-8----8--(10)-12--(10)-12-10-8----8---------------|
B|-------------------------10--------------------------10-----------------|
G|------------------------------------------------------------------------|
D|------------------------------------------------------------------------|
A|------------------------------------------------------------------------|
E|------------------------------------------------------------------------|
       bu                               bu     bu                 bu
e|--(10)12--15--12-------------------(10)12-(10)12-10-8----8---(10)12--15-|
B|-------------------15-13-10-13-12---------------------10----------------|
G|------------------------------------------------------------------------|
D|------------------------------------------------------------------------|
A|------------------------------------------------------------------------|
E|------------------------------------------------------------------------|
                         bu
e|-12-----------------(10)-12----------------------------------------------|
B|----15--13--10--13----------12---5-5-5-5-5-5-5---------------------------|
G|-------------------------------------------------------------------------|
D|-------------------------------------------------------------------------|
A|-------------------------------------------------------------------------|
E|-------------------------------------------------------------------------|

Chorus:
Dm          Am
But I don't mind
    Dm                               Am
As long as theres a bed beneath the stars that shine
Dm                    F
I'll be fine, If you give me a minute

A man's got a limit
   G                      E               **
I can't get a life if my hearts not in it

Am    E Am     E Am    E Am E Am (same as intro)

Verse 2
      Am                   F
I've lost my faith in the summer time
        C         B   E
Cos it don't stop raining
      Am               F
The sky all day is as black as night
         C       B  E
But I'm not complaining
  Am                    F
I begged my doctor for one more line
         C          B   E
He said "Son-words fail me
   Am                   F
I aint your place to be killing time"
         C        B  E
I guess I'm just lazy

Chorus
Dm           Am
But I don't mind
    Dm                               Am
As long as theres a bed beneath the stars that shine
Dm      Am            F
I'll be fine, If you give me a minute

A man's got a limit
   G                      E              **
I can't get a life if my hearts not in it

Outro
Am    E Am     E Am    E Am E Am (same as intro)

| /  slide up
| \  slide down
| h  hammer-on
| p  pull-off
| ~  vibrato
| +  harmonic
| x  Mute note
===========================================================================
Comments