Oasis - Importance Of Being Idle Chords & Tabs

 

Importance Of Being Idle Chords & Tabs

Oasis Chords & Tabs

Version: 1 Type: Bass Tab 0 ratings
1 star 2 stars 3 stars 4 stars 5 stars
comments

Importance Of Being Idle Bass Tab

   
----------------------------------------------------------------------------
		    Importance of being idle - Oasis              
----------------------------------------------------------------------------

Tabbed By : Anfo
e-mail: sessionalschizophrenic@hotmail.com

Tuning:Standard (EADG)

Intro
  Am          Em   Am          Em   Am          Em   Am  Em  Am
G|----------------|----------------|----------------|----------------|
D|----------------|----------------|----------------|----------------|
A|----------------|----------------|----------------|----------------|
E|5---5-5-5-5-0---|5---5-5-5-5-0---|5---5-5-5-5-0---|5---0---5-------|

Intro Part 2
  Am               Am               Am               Am
G|----------------|----------------|----------------|----------------|
D|----------------|------------7---|----------------|7---5-----------|
A|----------------|--------5-7---7-|----------------|--------7---5---|
E|5---5-5-5-5-5---|5---5-5---------|5---5-5-5-5-5---|----------------|
[ Tab from: http://www.guitartabs.cc/tabs/o/oasis/importance_of_being_idle_btab.html ]
Verse
  Am               Fmaj7            C                B11     E
G|----------------|----------------|----------------|----------------|
D|----------------|3-------3-3-3---|----------------|--------2---2-2-|
A|----------------|--------------5-|3-------3-3-3-3-|2-2-2-----------|
E|5-------5-5-5-5-|----------------|----------------|----------------|

Chorus
  Dm               Am
G|----------------|----------------|X3 Then
D|----------------|----------------|          
A|5-------5-5-5-3-|--------------3-|        
E|----------------|5-------5-5-5---|       
  Fmaj7            Fmaj7            G                E
G|----------------|----------------|----------------|----------------|
D|----------------|----------------|----------------|----------------|
A|----------------|----------------|----------------|----------------|
E|1-------1-1-1-1-|1-------1-1-1-1-|3-------3-3-3-3-|0-------0-0-0-0-|
E is repeated for 3 more bars then it's the guitar solo
Guitar solo is just the verse repeated 4 times

chorus again

then just play the intro again

then verse 3 

chorus yet again

intro again for the outro
Comments