Oasis - Idlers Dream Chords & Tabs

 

Idlers Dream Chords & Tabs

Oasis Chords & Tabs

Version: 1 Type: Tab 0 ratings
1 star 2 stars 3 stars 4 stars 5 stars
comments

Idlers Dream Tab

   
IDLER'S DREAM
=============

WHAT A GREAT SONG!!

F/C (xxx565)
Fsus4/C (xxx566)
Fmaj7/C (xxx560)
Dsus2 (xx0230)
Fmaj7 (xx3210)
C/E (xx2010)
Csus4/F (xx301x)
C (x32010)
Fadd9 (xx3213)
Em (022000)
Csus4 (x33010)
G/B (x2003x)
Am (x02210)
E (022100)
F#m7b5 (xx4210)
C* (x3201x)



                (F/C)             (Fsus4/C)         (Fmaj7/C)
INTRO:        e|-----5-----5-----|-----6-----6-----|-----0-----0---0-----0-----0---0-|
              B|---6-----6-----6-|---6-----6-----6-|---6-----6---------6-----6-------|
              G|-5-----5-----5---|-5-----5-----5---|-5-----5-----5---5-----5-----5---|  (X2)
              D|-----------------|-----------------|---------------------------------|
              A|-----------------|-----------------|---------------------------------|
              E|-----------------|-----------------|---------------------------------|



                (F/C)             (Fsus4/C)         (Fmaj7/C)
VERSE 1:      e|-----5-----5-----|-----6-----6-----|-----0-----0---0-----0-----0---0-|
              B|---6-----6-----6-|---6-----6-----6-|---6-----6---------6-----6-------|
              G|-5-----5-----5---|-5-----5-----5---|-5-----5-----5---5-----5-----5---|  (X2)
              D|-----------------|-----------------|---------------------------------|
              A|-----------------|-----------------|---------------------------------|
              E|-----------------|-----------------|---------------------------------|

                 my heart it skips a beat when i behold
                 the light that's shining through your eyes of gold


                (Dsus2)           (Fmaj7)         (C/E)     (Csus4/F) (C/E)
              e|---------0-------|-------0-------|-----0---|---------|----------------|
              B|-----------1---1-|---------1---1-|---1-----|-----1---|-----0--------1-|
              G|---2---2-----2---|---2-------2---|-0-----0-|---0---0-|---0---0----0---|
              D|-0---0-----------|-3---3---------|---------|-3-------|-2--------2-----|
              A|-----------------|---------------|---------|---------|----------------|
              E|-----------------|---------------|---------|---------|----------------|

                 from heavenly blood you seem to spring 


                (Dsus2)           (Fmaj7)         (C/E)     (Csus4/F) (C/E)
              e|---------0-------|-------0-------|-----0---|---------|----------------|
              B|-----------1---1-|---------1---1-|---1-----|-----1---|----------------|
              G|---2---2-----2---|---2-------2---|-0-----0-|---0---0-|----------------|
              D|-0---0-----------|-3---3---------|---------|-3-------|-2h-------------|
              A|-----------------|---------------|---------|---------|----------------|
              E|-----------------|---------------|---------|---------|----------------|

                 from heavenly waters you can drink



                (F/C)             (Fsus4/C)         (Fmaj7/C)
VERSE 2:      e|-----5-----5-----|-----6-----6-----|-----0-----0---0-----0-----0---0-|
              B|---6-----6-----6-|---6-----6-----6-|---6-----6---------6-----6-------|
              G|-5-----5-----5---|-5-----5-----5---|-5-----5-----5---5-----5-----5---|  (X2)
              D|-----------------|-----------------|---------------------------------|
              A|-----------------|-----------------|---------------------------------|
              E|-----------------|-----------------|---------------------------------|

                 i'll meet you on a day that never ends
                 i'll greet you in a way that heaven meant


                (Dsus2)           (Fmaj7)         (C/E)     (Csus4/F) (C/E)
              e|---------0-------|-------0-------|-----0---|---------|----------------|
              B|-----------1---1-|---------1---1-|---1-----|-----1---|-----0--------1-|
              G|---2---2-----2---|---2-------2---|-0-----0-|---0---0-|---0---0----0---|
              D|-0---0-----------|-3---3---------|---------|-3-------|-2--------2-----|
              A|-----------------|---------------|---------|---------|----------------|
              E|-----------------|---------------|---------|---------|----------------|

                 you lay me down gently on the leaves


                (Dsus2)           (Fmaj7)         (C/E)     (Csus4/F) (C/E)
              e|---------0-------|-------0-------|-----0---|---------|----------------|
              B|-----------1---1-|---------1---1-|---1-----|-----1---|----------------|
              G|---2---2-----2---|---2-------2---|-0-----0-|---0---0-|----------------|
              D|-0---0-----------|-3---3---------|---------|-3-------|-2h-------------|
              A|-----------------|---------------|---------|---------|----------------|
              E|-----------------|---------------|---------|---------|----------------|
[ Tab from: http://www.guitartabs.cc/tabs/o/oasis/idlers_dream_tab.html ]
                 you cover me over in my sleep



                (Fmaj7)         (C)             (Fadd9)         (C)
CHORUS 1:     e|-------0-------|-------0-------|-------3-------|-----0-------0-|
              B|---1-----1---1-|---1-----1---1-|---1-----1---1-|-------1---1---|
              G|-----2-----2---|-----0-----0---|-----2-----2---|---------0-----|
              D|-3-------------|---------------|-3-------------|---2-----------|
              A|---------------|-3-------------|---------------|-3-------------|
              E|---------------|---------------|---------------|---------------|

                 i never did say now i wish i could
                 i never could pray 'cause it's just no good
                 i hope you dont...


                (Fadd9)         (C)             (Em)
              e|-------3-------|-------0-------|-----------------------------|
              B|---1-----1---1-|---1-----1---1-|-----------------------------|
              G|-----2-----2---|-----0-----0---|-----------------------------|
              D|-3-------------|---------------|-----2-----2-------2-----2---|
              A|---------------|-3-------------|---2-----2---2---2-----2---2-|
              E|---------------|---------------|-0-----0-------0-----0-------|

                 ...break my heart of stone
                 i don't wanna scream out loud and wake up on my...


                (Fmaj7)                     (C)       (Csus4)   (C)       (G/B)
              e|-------0-----0-----0-------|-----0---|-----0---|-----0---|-------------|
              B|---1-----1-----1-----1---1-|---1---1-|---1---1-|---1---1-|-3--*1--3--1-|
              G|-----2-----2-----2-----2---|-0-------|---------|-0-------|-------------|
              D|-3-------------------------|---------|-3-------|---------|-------------|
              A|---------------------------|---------|---------|---------|-------------|
              E|---------------------------|---------|---------|---------|-------------|
             
                 ...own, mmmm mmmm
                 *and as i...
             
             
                (Am)             (Em)            (Fadd9)         (C)       (G/B)
              e|-----3--0-------|-------0-------|-------3-------|---------|----------|
              B|----------1---1-|---------0---0-|---1-----1---1-|---------|----------|
              G|------------2---|-----------0---|-----2-----2---|---0---0-|---0----0-|
              D|---2------------|-----2---------|-3-------------|---------|----------|
              A|-0--------------|---2-----------|---------------|-3---3---|-2---*2---|
              E|----------------|-0-------------|---------------|---------|----------|

                 ...close my eyes and the sky turns red
                 i realise just what you are
                 *you're an...


                (Am)            (E)
              e|---------------|---------------|
              B|-------1-------|-------0-------|
              G|---------2---2-|---------1---1-|
              D|---2-------2---|---2-------2---|
              A|-0---0---------|-----2---------|
              E|---------------|-0-------------|

                 ...idler's dream and you're singing shangri...


                (Fmaj7)         (F#m7b5)        (Fmaj7)         (F#m7b5)
              e|-------0-------|-------0-------|-------0-------|-------0-------|
              B|---1-----1---1-|-----1---1---1-|---1-----1---1-|-----1---1---1-|
              G|-----2-----2---|---2-------2---|-----2-----2---|---2-------2---|
              D|-3-------------|-4-------------|-3-------------|-4-------------|
              A|---------------|---------------|---------------|---------------|
              E|---------------|---------------|---------------|---------------|
 
                 ...la, shangri la, shangri...


                (Fmaj7)         (F#m7b5)        (Fmaj7)
              e|-------0-------|-------0-------|-------0-----0----0--------|
              B|---1-----1---1-|-----1---1---1-|---1-----1-----1-----1---1-|
              G|-----2-----2---|---2-------2---|-----2-----2-----2-----2---|
              D|-3-------------|-4-------------|-3-------------------------|
              A|---------------|---------------|---------------------------|
              E|---------------|---------------|---------------------------|

                 ...la, shangri la



                (C)       (Csus4)   (C)       (Csus4)   (C)       (Csus4)    (C*)
OUTRO:        e|-----0---|-----0---|-----0---|-----0---|-----0---|-----0---|--x--|
              B|---1---1-|---1---1-|---1---1-|---1---1-|---1---1-|---1---1-|--1--|
              G|-0-------|---------|-0-------|---------|-0-------|---------|--0--|
              D|---------|-3-------|---------|-3-------|---------|-3-------|--2--|
              A|---------|---------|---------|---------|---------|---------|--3--|
              E|---------|---------|---------|---------|---------|---------|--x--|



-rigs-
Comments