Oasis - I Can See A Liar Chords & Tabs

 

I Can See A Liar Chords & Tabs

Oasis Chords & Tabs

Version: 1 Type: Bass Tab 0 ratings
1 star 2 stars 3 stars 4 stars 5 stars
comments

I Can See A Liar Bass Tab

   
I Can See A Liar- Oasis
Standing on the Shoulder of Giants
Tabbed on 3 March 2000

Intro

G--------5h75h75h75h75-	(let ring)
A----------------------
D----------------------
E-10-------------------

Verse

G--------------------------------------------------------
D--------------------------------------------------------
A--------------------------------------------------------
E-10--10--10-10-10-9--9--9-9-9-8--8--8-8-8-7--7-7-7--7-7-

Repeat this riff 4 times until the bridge

Bridge

	He sits upon a throne...

G----------------------------------------------------------
D----------------------------------------------------------
A-------------------------3--3-3--3-3-5--5-5--5-5----------
E-6--6-6--6-6-6--6-6--6-6--------------------------6--6-6--

G-----------------------------
D-----------------------------
A-----------------3--3-3--3-3-
E-6-6-5--5-5--5-5-------------

Chorus
[ Tab from: http://www.guitartabs.cc/tabs/o/oasis/i_can_see_a_liar_btab.html ]
G---------------------------
D---------------------------		
A-5--5-3-2-3-5--------------
E--------------5--5-3-2-3-5-	Repeat this 8 times

The last part of the chorus you only play the last part of the chorus riff:

	Coming as you goes

G----------------------------------------------
D----------------------------------------------
A----------------------------------------------
E-5--5-3-2-3-5--5-5-3-2-3-5-5--5-3-2-3-5-----3-

Solo

G----------------------------------------------------------
D----------------------------------------------------------
A----------------------------------------------------------
E-6--6-6-6-6-1--1-1-1-1-3--3-3-3-3-6--6-6-6-6-1--1-1-1-1-1-

G---------------------------------
D---------------------------------
A---------------------------------
E-5-5-5-5-5-5-5-5-8-8-8-8-8-8-8-8-

This song is fucking tops, definitely the hardest song on the new album. 
Have fun with it. 

Comments