Oasis - Don't Look Back In Anger - First Part Chords & Tabs

 

Don't Look Back In Anger - First Part Chords & Tabs

Oasis Chords & Tabs

Version: 1 Type: Tab 1 rating
1 star 2 stars 3 stars 4 stars 5 stars
comments

Don't Look Back In Anger - First Part Tab

   
Oasis - Don't Look Back In Anger

Contain's beggining & chorus of song.

Containing Chords: C G Am E F Fm G#dim

Includes Bar Chords.


Beggining:

    C x2  G x2  Am x2 E x2  F x2  G x2   ]     C x2  Am x2 G x2   ]
E --8-----3-----5-----0-----1-----3----- ] E --8-----5-----3----- ]
B --8-----3-----5-----0-----1-----3----- ] B --8-----5-----3----- ]
G --8&09--3&04--5-----1-----1&02--3&04-- ] G --8&09--5-----3&04-- ]
D --8&10--3&05--5&07--2-----1&03--3&05-- ] D --8&10--5&07--3&05-- ]
A --8&10--3&05--5&07--2-----1&03--3&05-- ] A --8&10--5&07--3&05-- ]
E --8-----3-----5-----0-----1-----3----- ] E --8-----5-----5----- ]


Chorus:
    
So I start a revolution from my bed..
[ Tab from: http://www.guitartabs.cc/tabs/o/oasis/dont_look_back_in_anger_first_part_tab.html ]
    F x4  Fm x4 C       ]
E --1-----1-----8-----  ]           
B --1-----1-----8-----  ]           
G --1&02--1-----8&09--  ]
D --1&03--1&03--8&10--  ]           
A --1&03--1&03--8&10--  ] 
E --1-----1-----8-----  ] 

So Sally can wait..   

    G x8  Gdim x8 Am x4 G x4  F x8  G x8  G x8    ]
E --3-----0-------5-----3-----1-----3-----3-----  ]
B --3-----0-------5-----3-----1-----3-----3-----  ]
G --3&04--0-------5&06--3&04--1&02--3&04--3&04--  ]
D --3&05--6-------5&07--3&05--1&03--3&05--3&05--  ]
A --3&05--5-------5&07--3&05--1&03--3&05--3&05--  ]
E --3-----4-------5-----3-----1-----3-----3-----  ]


C x2 / G x2 / Am x2 / E x2 / F x2 / G x2 / C x2/ Am x2 / G x2

*[F x4 / Fm x4 / C x8]* x3

G x8 / G#dim x8 / Am x4 / G x4 / F x8 / G x8 / G x8


Best Of Luck // Sam [Handz]  
Comments