Oasis - Digsys Dinner Chords & Tabs

 

Digsys Dinner Chords & Tabs

Oasis Chords & Tabs

Version: 2 Type: Bass Tab 0 ratings
1 star 2 stars 3 stars 4 stars 5 stars
comments

Digsys Dinner Bass Tab

----------------------------------------------------------------------------
			    Digsy's Dinner - Oasis
----------------------------------------------------------------------------

Tabbed By :Anfo 
e-mail:Sessionalschizophrenic@hotmail.com 

Tuning:Standard Tuning (EADG)

Verse
G|----------------|----------------|----------------|----------------|
D|----------------|----------------|----------------|----------------|
A|----------------|4-4-4-4-4-4-4-4-|5-5-5-5-5-5-5-5-|7-7-7-7-7-7-7-7-|
E|5-5-5-5-5-5-5-5-|----------------|----------------|----------------|

G|----------------|----------------|----------------|
D|----------------|----------------|----------------|
A|5-5-5-5-5-5-5-5-|7-7-7-7-7-7-7-7-|5-5-3-3-2-2-3-3-|
E|----------------|----------------|----------------|
[ Tab from: http://www.guitartabs.cc/tabs/o/oasis/digsys_dinner_btab_ver_2.html ]
Chorus
G|----------------|----------------|----------------|----------------|
D|----------------|----------------|----------------|----------------|
A|----------------|----------------|----------------|----------------|
E|2-------2-2---2-|2-------2-2---2-|5------5-5----5-|5-------5-5---5-|

G|----------------|----------------|----------------|----------------|
D|----------------|----------------|----------------|----------------|
A|2-------2-2---2-|2-------2-2---2-|4------4-4----4-|4-4-4-4-4-4-4-4-|
E|----------------|----------------|----------------|----------------|

During the last bar of the chorus you can play up the octave (6th fret
on the G-string or 16th fret on the A-string)

The outro is just the verse reapeated (without the first two bars) but
there's a little breakdown before the last note

Outro
G|------------|----------------|
D|------------|----------------|
A|5-4-3-5-3-2-|0---------------|
E|------------|----------------|
This first bar is triplets crotchets (it just seems that the bar is
smaller than the rest because I couldn't make it fit evenly properly)

The intro is just the verse riff just without the first two bars. It
goes straight to D (5th fret on A-string)
Comments