Oasis - Cigarettes And Alcohol Chords & Tabs

 

Cigarettes And Alcohol Chords & Tabs

Oasis Chords & Tabs

Version: 3 Type: Bass Tab 1 rating
1 star 2 stars 3 stars 4 stars 5 stars
comments

Cigarettes And Alcohol Bass Tab

----------------------------------------------------------------------------
		     Cigarettes and Alcohol - Oasis
----------------------------------------------------------------------------

Tabbed By : Anfo
e-mail: sessionalschizophrenic@hotmail.com

Tuning:Standard (EADG)
Verse
G|----------------|----------------|----------------|
D|----------------|----------------|----------------|
A|7---5-7---5-7-7-|5-7---------7-7-|5-7-7-7---2-4-7-|
E|----------------|----3-2-0-------|--------4-------|

G|----------------|----------------|----------------|----------------|
D|----------------|----------------|----------------|----------------|
A|7-7-5-7---5-7-5-|7-7-5-7---4-2---|----------------|----------2-4-7-|
E|----------------|--------------4-|2-2-2-2-2-0-4-5-|5-5-5-5-4-------|
[ Tab from: http://www.guitartabs.cc/tabs/o/oasis/cigarettes_and_alcohol_btab_ver_3.html ]
Pre-Chorus
G|----------------|----------------|Repeat this 3 times but don't on the
D|----------------|----------------|last time carry on the E (7th on A)
A|--------------5-|7-7-7-7-7-------|until this breakdown
E|5-5-5-5-5-7-9---|----------9-7-5-|

Breakdown
G|----------------|
D|----------------|
A|5---5-4---------|
E|--------7-5-----|

Chorus
G|----------------|----------------|Repeat this until the next breakdown
D|----------------|----------------|
A|----------2-4-5-|--5-5-----------|
E|0-0-3-0-3-------|------5-3-------|

Next Breakdown
G|----------------|----------------|----------------|
D|----------------|----------------|----------------|                    
A|3---3-3-3-3-----|2---2-2-2-2-----|----------------|
E|----------------|----------------|0---------------|
Comments