Oasis - Cigarettes And Alcohol Chords & Tabs

 

Cigarettes And Alcohol Chords & Tabs

Oasis Chords & Tabs

Version: 1 Type: Bass Tab 1 rating
1 star 2 stars 3 stars 4 stars 5 stars
comments

Cigarettes And Alcohol Bass Tab

   
Cigarettes and Alcohol- Oasis
From Definitely Maybe
Tabbed by Mike Crowder on 20 January, 2000
Email at michael_crowder@yahoo with comments or corrections

Intro

G--------------------------------------------
D--------------------------------------------
A--------------------------------------------
E-2-0-2-0-0-2-2-0-2--3-2-0--2-0-2-0-0-2-0-2-0

Verse

G----------------------------------------------------------
D----------------------------------------------------------
A----------------------------------------------------------
E-2-0-2-0-0-2-2-0-2-0-2-0-5-5-5-5-5-5-5-5-0-0-0-0-0-0-0-0--

G---------------------------------------------
D---------------------------------------------
A---------------------------------------------
E-2-0-2-0-0-2-2-0-2--3-2-0--2-0-2-0-0-2-0-2-0-  x2

Chorus
[ Tab from: http://www.guitartabs.cc/tabs/o/oasis/cigarettes_and_alcohol_btab.html ]
G----------------------------------------------------------
D----------------------------------------------------------
A----------------------------------------------------------
E-5-5-5-5-5-5-5-5-0-0-0-0-0-0-0-0-5-5-5-5-5-5-5-5-0-0-0-0-0

G----------------------------------------------------------
D----------------------------------------------------------
A---------------------------------------5-5-5-5-5-5-5-5----
E-0-0-0-5-5-5-5-5-5-5-5-0-0-0-0-0-0-0-0-----------------5-5

G----------------------------------------------------------
D----------------------------------------------------------
A----------------------------------------------------------
E-5-5-5-5-5-5-0-0-0-0-0-0-0-0-5-5-5-5-5-5-5-5-0-0-0-0-0-0-0

G---
D---
A---
E-0-


Solo Bit: Just play D A E Progression that is the last part of the chorus. Guigsy
walks up and down the board during the alternating A E in the chorus. I just like
to improvise this.
Comments