Oasis - Acquiesce Chords & Tabs

 

Acquiesce Chords & Tabs

Oasis Chords & Tabs

Version: 2 Type: Bass Tab 0 ratings
1 star 2 stars 3 stars 4 stars 5 stars
comments

Acquiesce Bass Tab

Band: Oasis
Title: Acquiesce

Intro
G|----------------------------------------------------------------------|
D|----------------------------------------------------------------------|
A|----------------------------5---5---3--------------3------------------| x4
E|---5---5---3---5---5--------------------3---3-------------------------|

Verse 
G|----------------------------------------------------------------------|
D|----------------------------------------------------------------------|
A|----------------------------5---5---3--------------3------------------| x7
E|---5---5---3---5---5--------------------3---3-------------------------|
I donít know what is that makes me feel alive......

Pre Chorus 
G|----------------------------------------------------------------------|
D|----------------------------------------------------------------------|
A|----------------------------------------------------------------------|
E|--5-5-5---0---3-3-3---0---2-2-2---0---1-1-1---0-----------------------|

|-----------------------------------------------------------------------|
|-----------------------------------------------------------------------|
|-----------------------------------------------------------------------|
|---0---0---0---0-----0---0---0---0-------------------------------------|

Chorus 
|-----------------------------------------------------------------------|
|-----------------------------------------------------------------------|
|------------3---3---0--------------------------------------------------| x8
|--1---1------------------3---3---3---3---3---3---3---3-----------------|
cause we nedd each other......

After Chorus 
G|----------------------------------------------------------------------|
D|----------------------------------------------------------------------|
A|----------------------------------------------------------------------|
E|--5-5-5---0---3-3-3---0---2-2-2---0---1-1-1---0-----------------------|

|-----------------------------------------------------------------------|
|-----------------------------------------------------------------------|
|-----------------------------------------------------------------------|
|---0---0---0---0-----0---0---0---0-------------------------------------|
[ Tab from: http://www.guitartabs.cc/tabs/o/oasis/acquiesce_btab_ver_2.html ]
Verse 
G|----------------------------------------------------------------------|
D|----------------------------------------------------------------------|
A|----------------------------5---5---3--------------3------------------| x7
E|---5---5---3---5---5--------------------3---3-------------------------|
There are many things I would like to know......

Pre Chorus 
G|----------------------------------------------------------------------|
D|----------------------------------------------------------------------|
A|----------------------------------------------------------------------|
E|--5-5-5---0---3-3-3---0---2-2-2---0---1-1-1---0-----------------------|

G|----------------------------------------------------------------------|
D|----------------------------------------------------------------------|
A|----------------------------------------------------------------------|
E|---0---0---0---0-----0---0---0---0------------------------------------|

Chorus 
G|----------------------------------------------------------------------|
D|----------------------------------------------------------------------|
A|------------3---3---0-------------------------------------------------| x11
E|--1---1------------------3---3---3---3---3---3---3---3----------------|
cause we nedd each other......

Chorus 
G|----------------------------------------------------------------------|
D|----------------------------------------------------------------------|
A|------------3---3---0-------------------------------------------------| x8
E|--1---1------------------3---3---3---3---3---3---3---3----------------|
We Believe......

Outro
G|----------------------------------------------------------------------|
D|----------------------------------------------------------------------|
A|--8---8---8---8---8---8---8---8---7---7---7---7---7---7---7---7-------|
E|----------------------------------------------------------------------|

G|----------------------------------------------------------------------| 
D|----------------------------------------------------------------------|
A|--6---6---6---6---6---6---6---6---3---3---3---3---3---3---3---3-------|
E|----------------------------------------------------------------------|

end on 
G|----------------------------------------------------------------------|
D|----------------------------------------------------------------------|
A|----------------------------------------------------------------------|
E|-3*-------------------------------------------------------------------|

* = LET IT RING

J.Donnelly
Comments