Oasis - A Bell Will Ring Chords & Tabs

 

A Bell Will Ring Chords & Tabs

Oasis Chords & Tabs

Version: 2 Type: Tab 0 ratings
1 star 2 stars 3 stars 4 stars 5 stars
comments

A Bell Will Ring Tab

   
this is what sounds right to me, they throw in some other stuff i cant catch but o well....


Intro
e|------------------------------2p0-0-2--2-2--2--------|
B|------5-----5--7p5-4-4-4h5p4--2p0-0-2--2-2--2--------|
G|------------------------------0----------------------|
D|--4h6---4h6------------------------------------------|
A|-----------------------------------------------------|
E|-----------------------------------------------------|

e|-------------------------------2p0-0-2--2h4-0-0--0---|
B|-------5-----5--7p5-4-4-4h5p4--2p0-0-2--2p0-0-0--0---|
G|-------------------------------------------------4---|
D|--2\4h6---4h6----------------------------------------|
A|-----------------------------------------------------|
E|-----------------------------------------------------|

e|------------2p0-0-2--2--2-2--2--2--------------------|
B|--0-0--0----2p0-0-2--2--2-2--2--2--------------------|
G|--4-4--4---------------------------------------------|
D|--1-1--1/2-------------------------------------------|
A|-----------------------------------------------------|
E|-----------------------------------------------------|

Verse

E
a little space, a little time
Dsus2              E
see what it can do
E
a little faith, a piece of mind
Dsus2                      E
see what puts things through

Dsus2                      Asus2
the sun will shine on you again
E                   Dsus2
a bell will ring inside your head
A                            E
and all will be brand new

E
come along, come on in
Dsus2                                E
here's something that you'll know
E
who wonders why as your restless there ?
Dsus2                 E
so entertain your goal

Dsus2                      Asus2
the sun will shine on you again
E	 Dsus2
a bell will ring inside your head

Riff 1
e|--4-2-0----------------------------------------------|
B|--------4--------------------------------------------|
G|-----------------------------------------------------|
D|-----------------------------------------------------|
A|-----------------------------------------------------|
E|-----------------------------------------------------|


A                            E
and all will be brand new
A                     E
all will be brand new
[ Tab from: http://www.guitartabs.cc/tabs/o/oasis/a_bell_will_ring_tab_ver_2.html ]
Riff 2
e|-----------------------------------------------------|
B|-----------------------------------------------------|
G|-----------------------------------------------------|
D|--------2-3-4----------------------------------------|
A|--2/4-4----------------------------------------------|
E|-----------------------------------------------------|


E
i can tell you what you want to hear
Dsus2                    E
i've been here once before
E
you put me through my empty night
Dsus                   E
sleepless on your floor

Dsus2                       Asus2
the sun will shine on you again
E                    Dsus2
a bell will ring inside your head

A                             E
and all will be brand new
A                      E
all will be brand new
A	  E             / A*        E             3x   <-  *2
all will be brand new

e|------------------------------2p0-0-2--2-2--2--------|
B|------5-----5--7p5-4-4-4h5p4--2p0-0-2--2-2--2--------|
G|------------------------------0----------------------|
D|--4h6---4h6------------------------------------------|
A|-----------------------------------------------------|
E|-----------------------------------------------------|

e|-------------------------------2p0-0-2--2h4-0-0--0---|
B|-------5-----5--7p5-4-4-4h5p4--2p0-0-2--2p0-0-0--0---|
G|-------------------------------------------------4---|
D|--2\4h6---4h6----------------------------------------|
A|-----------------------------------------------------|
E|-----------------------------------------------------|

e|------------2p0-0-2--2--2-2--2--2h4-0-0--0-----------|
B|--0-0--0----2p0-0-2--2--2-2--2--2p0-0-0--0--0-0--0---|
G|--4-4--4------------------------------------4-4--4---|
D|--1-1--1/2----------------------------------1-1--1/2-|
A|-----------------------------------------------------|
E|-----------------------------------------------------|

Guitar 2
e|----------------------------------------------------       E|---0---|
B|----------------------------------------------------        |---0---|
G|------1-1-1-----------------------------------------   x2  N|---1---|
D|----2------------1-1-1------------------------------        |---2---|
A|--2------------2------------------------------------       D|---2---|
E|-------------0--------------------------------------       !|---0---|

hope its right to ur ears, thanks.... nick
Comments