Oar - Windy City Man Chords & Tabs

 

Windy City Man Chords & Tabs

Oar Chords & Tabs

Version: 1 Type: Tab 0 ratings
1 star 2 stars 3 stars 4 stars 5 stars
comments

Windy City Man Tab

O.A.R. (...of a revolution)
Windy City Man

Tabbed By Jason Scherrer

Intro/lead ins

e--------------------------------------|
b---8--10--12--8--10--13--15--13--12---|
g--------------------------------------|
d--------------------------------------|
a--------------------------------------|
E--------------------------------------|

Verse/Chorus
[ Tab from: http://www.guitartabs.cc/tabs/o/oar/windy_city_man_tab.html ]
e---10---12------15--------------------------------------------- ) (the third chord should be)
b---12---12h13---13--------------------------------------------- ) (easy to get to from the  ) (Just listen)
g---12---12h14---12--- (second one, you just pull) (   to the -- )
d---12---12h14---14--- (your pinky off the 14th  ) (rhythm for-- )
a---10---12------12--- (fret on the g string and ) ( the beats-- )
E---10---12------12--- (put it on the 15------------------------ ) on the e)

This is just G - Am higher up on the fret.  It's the
guitar that stands out the most.

Bridge/Outro

e---10---10---5---8----|
b---12---10---5---8----|
g---12---11---5---9----|
d---12---12---7---10---|
a---10---12---7---10---|
E---10---10---5---8----|

This is Just G - D - Am - C.  You can play this in any variation you want.

joshpwc@yahoo.com
oarsa.org
Comments