Oar - Sail Away Chords & Tabs

 

Sail Away Chords & Tabs

Oar Chords & Tabs

Version: 1 Type: Tab 0 ratings
1 star 2 stars 3 stars 4 stars 5 stars
comments

Sail Away Tab

   
O.A.R.
Sail Away


-------3-----3-------3/2-------3------------|
-------3-----3-------3/2-------3------------|
--------------------------------------------|
-------------2------------------------------|
-------2-----3-----------------2------------|
-------3-----------------------3------------|


Chorus:  G, D, C


Breakdown:
[ Tab from: http://www.guitartabs.cc/tabs/o/oar/sail_away_tab.html ]
---------------     ------------------------------------------|
---------------     ------------------------------------------|
---7----5------     --7---5----------------3-----4-----5----7-|
---7----5--5---     --7---5---5---3---5----3-----4-----5----7-|
---5----3--5---     --5---3---5---3---5----1-----2-----3----5-|
-----------3---     ----------3---1---3-----------------------|
	4x						4x


Questions/Comments:
joshpwc@yahoo.com
or
oarsa.org
Comments